Oops, an error
Loading. Please wait.

Que Es Lo Que Estamos Haciendo tab

66 views 1 this week
no commentswrite comment
1 2 3 4 5
3 more votes to show rating
add to favorites
×
Save as Personal and add changes to this tab that will be seen only by you. Learn more ›
×
You can save this tab as Personal to edit and correct it or add notes. All changes will be seen only by you. Learn more »
launch autoscroll
font size
0
reset
how to read this tab
guitar tuner
edit
Autoscroll
slow
fast
+/-
esc
set tempo
stop
intro: DO-FA x2 (palm mute)(FA*-FA*)


DO                         FA
Donde esta la herida de tu corazon
DO                         FA
cierrala y guarda todo en un cajon
LA                         SOL
que jamas nadie te haga sentir dolor..
      DO          (FA*-FA*)
Ni sentir calor..
DO                       FA
Soy capaz de inmotizar a tu reloj
DO                     FA
y parar el tiempo para solo dos
LA                         SOL                 DO
y arañar las nubes y que brille el sol..y que brille el sol..


         FA*            DO
Y ahora que no estas si nada es igual
     SOL
y me cuesta sonreir
        FA*             DO
y ahora que no estas y todo me sale mal
    SOL
y ya no puedo dormir..
                          FA* DO SOL
que es lo que estamos haciendo..
                      FA* DO SOL           (FA*-FA*)
que nos estamos rindiendo..


DO                         FA
Quiero usar mi nuevo destornillador
DO                   FA
y quitar entero tu caparazon y
LA                        SOL
encontrar la herida de tu corazon
        DO
de tu corazon...


         FA*            DO
Y ahora que no estas si nada es igual
     SOL
y me cuesta sonreir
        FA*             DO
y ahora que no estas y todo me sale mal
    SOL
y ya no puedo dormir..
                          FA* DO  SOL
que es lo que estamos haciendo..
                     FA* DO SOL
que nos estamos rindiendo..


SOLO:

   DO               FA      DO             FA
E||-----------------------------------------------------
B||-----------------------------------------------------
G||-/2-0-0---2 0------------/2-0-0---2-0----------------
D||--------3-----3-2-2-33~---------3-----3-2-2--3-------
A||-----------------------------------------------3~----
E||-----------------------------------------------------
LA               SOL        DO
--------------------------------------||
--------------------------------------||
--------------------------------------||
--------------------------------------||
-/7-77-7-7-7-8-11-7-55--7--55-7--3~~--||
--------------------------------------||


         FA*            DO
Y ahora que no estas si nada es igual
     SOL
y me cuesta sonreir
        FA*             DO
y ahora que no estas y todo me sale mal
    SOL
y ya no puedo dormir..
                          FA* DO  SOL
que es lo que estamos haciendo..
                     FA* DO SOL
que nos estamos rindiendo..
                          FA* DO  SOL
que es lo que estamos haciendo..
                     FA* DO SOL
que nos estamos rindiendo..


FINAL:

    FA*     DO        SOL              FA*     DO      SOL
E||-------------------------------------------------------------------||
B||-------------------------------------------------------------------||
G||--5--9-7-55--9-7-9-7-4-2-0--0000000--5--9-7-55-9-7-9-12-9-7--5--7~-||
D||-------------------------------------------------------------------||
A||-------------------------------------------------------------------||
E||-------------------------------------------------------------------||


FA-DO-SOL

            
            
Suggest correction
Creating personal tab
Creating personal tab
You can edit any tab online and save it as your Personal.

You can edit, replace or remove any tab part or add personal notes – all changes will be seen only by you.

Personal tabs can be accessed anytime from any device, even offline.
Learn more »
Give kudos to tab author, rate the tab!
1 2 3 4 5
comments
print report bad tab
guest
Wanna post a correction for this tab? Suggest correction