Oops, an error
Loading. Please wait.

Todo Se Muere tab

36 views 1 this week
no commentswrite comment
1 2 3 4 5
3 more votes to show rating
add to favorites
×
Save as Personal and add changes to this tab that will be seen only by you. Learn more ›
×
You can save this tab as Personal to edit and correct it or add notes. All changes will be seen only by you. Learn more »
launch autoscroll
font size
0
reset
how to read this tab
guitar tuner
edit
Autoscroll
slow
fast
+/-
esc
set tempo
stop
Afinación está canción se toca en QUINTAS.

INTRO: DO#*-FA#

DO#        SOL#               LA#
Hoy puedo decir que no encontré,
       FA#
Lo que fui buscando,
DO#          SOL#            LA#
Hoy puedo decir que te esperé,
       FA#
Pero no has llegado                         PALM MUTE
DO#         SOL#        LA#
Probé tantas veces el amor,
       FA#
Que me sabe raro,
DO#       SOL#            LA#
Le robé las horas al reloj,
        FA#           SOL#
Pero el tiempo pasa igual

ESTRIBILLO: (x2)
(LA#)            DO#
Y es que todo se muere,
SOL#                 LA#
    Y tiemblan mis paredes,
SOL#              FA#
    Y nos gusta disimular,
                SOL#
Cuando todo nos sale mal

(el resto de la canción igual)
Hoy descolgaré de mi pared,
Los recuerdos malos,
Plantaré semillas de ilusión,
Por si brota algo,

(ahora jugar con:
e-----------
C-----------
G-10----11--
D----11-----
A-----------
E-----------
Hoy escayolé mi corazón,
Contra los te quiero,
Le echaré los besos los besos al buzón,
Para que no vuelvas más

ESTRIBILLO (x2)

SOLO:
e----------------------------------------------------------------
C----------------------------------------------------------------
G----------------------------------------------------------------
D-10-10-11-11-13-13-10-10-11-11-13-13-10-10-11-11-(x4)-----------
A----------------------------------------------------------------
E----------------------------------------------------------------
(continuación)
e----------------------------------------------------------------
C----------------------------------------------------------------
G----------------------------------------------------------------
D-16-16-15-15-13-13-16-16-15-15-13-13-16-16-15-15-(x2)-----------
A----------------------------------------------------------------
E----------------------------------------------------------------
(conitnuación)
e----------------------------------------------------------------
C----------------------------------------------------------------
G----------------------------------------------------------------
D-10-10-11-11-13-13-10-10-11-11-13-13-10-10-11-11-(x2)-----------
A----------------------------------------------------------------
E----------------------------------------------------------------


ESTRIBILLO (x4)

FINAL: FA#-SOL#-DO#


DO#*
e|-X-|
C|-X-|
G|-X-|
D|-6-|
A|-6-|
E|-4-|

            
            
Suggest correction
Creating personal tab
Creating personal tab
You can edit any tab online and save it as your Personal.

You can edit, replace or remove any tab part or add personal notes – all changes will be seen only by you.

Personal tabs can be accessed anytime from any device, even offline.
Learn more »
Give kudos to tab author, rate the tab!
1 2 3 4 5
comments
print report bad tab
guest
Wanna post a correction for this tab? Suggest correction