Oops, an error
Loading. Please wait.

Prom Song tab

version 2
version 2

Whole song

by Pile
991 views 12 this week
1 commentread comment
1 2 3 4 5
1 last vote to show rating
add to favorites
×
Save as Personal and add changes to this tab that will be seen only by you. Learn more ›
×
You can save this tab as Personal to edit and correct it or add notes. All changes will be seen only by you. Learn more »
launch autoscroll
font size
0
reset
how to read this tab
guitar tuner
edit
Autoscroll
slow
fast
+/-
esc
set tempo
stop
Author
Difficulty
Tabbed by Dan Bogosian

The intro especially isn't 100% right (welcome to corrections), but the solo is 100% right:
he uses a little distortion with a lot of gain and an octave pedal. Octave pedal = key.


[Intro]

Rick:
e|----------------------------------------------------------------|
B|----------------------------------------------------------------|
G|--6b6-----------6b6----------6b6--------------------------------|
D|-------9-6--6-9---------9--------9-6---6-9------4---2--------2--|
A|--------------------7h9-----------------------4----4---2/4--4---|
E|----------------------------------------------------------------|

e|-------------------------------------------------------------|
B|-------------------------------------------------------------|
G|--6b6-----------6b6---------6b6------------------------------|
D|-------9-6--6-9---------9--------9-6---6-9------4--2---------|
A|--------------------7h9----------------------4----4---2/4--4-|
E|-------------------------------------------------------------|

Matt:
e|---------------------------------------------------------------|
B|----------------------------------------9----------------------|
G|------------------------------------9h11-----------------------|
D|---------------------------------------------------------------|
A|----------------4----------------------------4-----------------|
E|--5---------------------0---5-------------------------0--------|


Watch the timing on the second non-bended C#; it hits on 1 after everything else was syncopated.
e|-----------------------------------------------------------|
B|-----------------------------7-----------------------------|
G|----6b6---6------6-------4h6--6----------------------------|
D|-----------------------------------------------------------|
A|----------------------------------------------4------------|
E|-/5-----------------------------5----5-5--------------0----|


[Verse 1]

Matt:
e|--6-5---5-4--8--7---|
B|--6-5---7-6--10-9---|
G|--7-6---7-6--10-9---| x6
D|--8-7---7-6--10-9---|
A|--8-7---5-4--8--7---|
E|--6-5---5-4--8--7---|

e|--5-5-5-5-5-5-5-5-2-2-2-2-2-2-2-2--|
B|--5-5-5-5-5-5-5-5-2-2-2-2-2-2-2-2--|
G|--6-6-6-6-6-6-6-6-2-2-2-2-2-2-2-2--| x2
D|--7-7-7-7-7-7-7-7-4-4-4-4-4-4-4-4--|
A|--7-7-7-7-7-7-7-7-4-4-4-4-4-4-4-4--|
E|--5-5-5-5-5-5-5-5-2-2-2-2-2-2-2-2--|

e|-----|
B|-----|
G|--1--|
D|--2--|
A|--2--|
E|-----|

Rick:

e|-----------------------|
B|-----------------------|
G|--7-6---10-9---14-13---| x3
D|-----------------------|
A|--8-7---12-11--15-14---|
E|--6-5---10-9---13-12---|

e|----------------------5-----------------------------|
B|-6p5------5---6p5--------10p9------9-----10p9---9---|
G|------5h6--6------5h6---------9h10---10-------9-----| x3
D|----------------------------------------------------|
A|----------------------------------------------------|
E|----------------------------------------------------|

e|-5----------------------------5---|
B|-5----55--7--8-9------------------|
G|-6--5-------------6-----6--6------|
D|--------------------6h7--7--7---7-|
A|----------------------------------|
E|----------------------------------|

e|-5-------------------------------------------0--------0--0---------|
B|-5------55--7--8-9--------------------------5-------5--------------|
G|-6--5h6-------------6-----6--6--6----4---------4-------------------|
D|----------------------6h7--7--7--7---6--4h6------4h6---6-----------|
A|-------------------------------------------------------------h7-h6-|
E|-------------------------------------------------------------------|


[Bridge]

Both Matt & Rick:

e|--6-6-6-6-6-6-6--|
B|--8-8-8-8-8-8-8--|
G|--8-8-8-8-8-8-8--|
D|--8-8-8-8-8-8-8--|
A|--6-6-6-6-6-6-6--|
E|--6-6-6-6-6-6-6--|


[Pre-Chorus]

e|--5---4---6---7---4-4-4-4---|
B|--5---4---8---9---6-6-6-6---|
G|--6---5---8---9---6-6-6-6---|
D|--7---6---8---9---6-6-6-6---|
A|--7---6---6---7---4-4-4-4---|
E|--5---4---6---7---4-4-4-4---|

e|--5-5-5-5-4-4-4-4-7-7-7-7-7-7-7-7--|
B|--5-5-5-5-4-4-4-4-9-9-9-9-9-9-9-9--|
G|--6-6-6-6-5-5-5-5-9-9-9-9-9-9-9-9--|
D|--7-7-7-7-6-6-6-6-9-9-9-9-9-9-9-9--|
A|--7-7-7-7-6-6-6-6-7-7-7-7-7-7-7-7--|
E|--5-5-5-5-4-4-4-4-7-7-7-7-7-7-7-7--|


[Chorus 1]

Both guitars:
e|--5-5-5-5-4-4-4-4-5-5-5-5-5-5-5-5-4-4-4-4-7-7-7-7---|
B|--5-5-5-5-5-5-5-5-7-7-7-7-5-5-5-5-5-5-5-5-9-9-9-9---|
G|--6-6-6-6-6-6-6-6-7-7-7-7-6-6-6-6-6-6-6-6-9-9-9-9---|
D|--7-7-7-7-6-6-6-6-5-5-5-5-7-7-7-7-6-6-6-6-9-9-9-9---|
A|--7-7-7-7-4-4-4-4-5-5-5-5-7-7-7-7-4-4-4-4-7-7-7-7---|
E|--5-5-5-5-4-4-4-4-5-5-5-5-5-5-5-5-4-4-4-4-7-7-7-7---|

e|--5-5-5-5-4-4-4-4-8--8--8--8--5-5-5-5-4-4-4-4-7-7-7-7--|
B|--5-5-5-5-5-5-5-5-10-10-10-10-5-5-5-5-4-4-4-4-9-9-9-9--|
G|--6-6-6-6-6-6-6-6-10-10-10-10-6-6-6-6-5-5-5-5-9-9-9-9--|
D|--7-7-7-7-6-6-6-6-10-10-10-10-7-7-7-7-6-6-6-6-9-9-9-9--|
A|--7-7-7-7-4-4-4-4-8--8--8--8--7-7-7-7-6-6-6-6-7-7-7-7--|
E|--5-5-5-5-4-4-4-4-8--8--8--8--5-5-5-5-4-4-4-4-7-7-7-7--|


Repeat intro

Rick:
e|----------------------------------------------------------------|
B|----------------------------------------------------------------|
G|--6b6-----------6b6----------6b6--------------------------------|
D|-------9-6--6-9---------9--------9-6---6-9------4---2--------2--|
A|--------------------7h9-----------------------4----4---2/4--4---|
E|----------------------------------------------------------------|

e|-------------------------------------------------------------|
B|-------------------------------------------------------------|
G|--6b6-----------6b6---------6b6------------------------------|
D|-------9-6--6-9---------9--------9-6---6-9------4--2---------|
A|--------------------7h9----------------------4----4---2/4--4-|
E|-------------------------------------------------------------|

Matt:
e|---------------------------------------------------------------|
B|----------------------------------------9----------------------|
G|------------------------------------9h11-----------------------|
D|---------------------------------------------------------------|
A|----------------4----------------------------4-----------------|
E|--5---------------------0---5-------------------------0--------|


Watch the timing on the second non-bended C#; it hits on 1 after everything else was syncopated.
e|-----------------------------------------------------------|
B|-----------------------------7-----------------------------|
G|----6b6---6------6-------4h6--6----------------------------|
D|-----------------------------------------------------------|
A|----------------------------------------------4------------|
E|-/5-----------------------------5----5-5--------------0----|


[Chorus 2]

Matt does the same as before

Rick:
e|-----------------------------------------------------|
B|---5----5--------9---7-----5----5--------9--------12-|
G|--6--6--------9-----9-----6--6--------9---------13---|
D|-7--7-7---7/11-11--------7--7-7---7/11-11--11/14-----|
A|-------------------9---------------------------------|
E|-----------------------------------------------------|

e|----5-----------4/5-----9---8----7-7-7-7-7-7-7-7-7-|
B|---5-5---------5---5-----10--9---9-9-9-9-9-9-9-9-9-|
G|--6---6-------6-----6------9--8--9-9-9-9-9-9-9-9-9-|
D|-7-----7--(x)--------------------9-9-9-9-9-9-9-9-9-|
A|---------------------------------7-7-7-7-7-7-7-7-7-|
E|---------------------------------7-7-7-7-7-7-7-7-7-|


[Solo]

Matt:
e|--5-5-5-5-5-5-4-4-4-4-4-4-7-7-7-7-7-7-|
B|--5-5-5-5-5-5-5-5-5-5-5-5-9-9-9-9-9-9-|
G|--6-6-6-6-6-6-6-6-6-6-6-6-9-9-9-9-9-9-|
D|--7-7-7-7-7-7-6-6-6-6-6-6-9-9-9-9-9-9-|
A|--7-7-7-7-7-7-4-4-4-4-4-4-7-7-7-7-7-7-| x7
E|--5-5-5-5-5-5-4-4-4-4-4-4-7-7-7-7-7-7-|

then the rhythm changes, but the chords stay the same. Just pay attention.

e|----------------------------------------------------------------------------------------------|
B|--12------12-----12h14p12---------------------------------------------------------------------|
G|------13------13-----------13--11----11-----11h13p11---------------11h13p11----------------11-|
D|----------------------------------14-----14----------14--11-14--11---------14p11-----11-14----|
A|----------------------------------------------------------------------------------14----------|
E|----------------------------------------------------------------------------------------------|

e|---------12------------------------------|
B|-----------12----------------------------|
G|--11b13------13b111----------------11-13-|
D|-----------------------14---11--14-------|
A|-----------------------------------------|
E|-----------------------------------------|

e|----------------------------------------------------------------------------------------------|
B|--12------12-----12h14p12---------------------------------------------------------------------|
G|------13------13-----------13--11----11-----11h13p11---------------11b13-------------------11-|
D|----------------------------------14-----14----------14-11-14--11---------14p11-----11-14-----|
A|---------------------------------------------------------------------------------14-----------|
E|----------------------------------------------------------------------------------------------|

e|---------12------------------------------------|
B|-----------12----------------------------------|
G|--11b13------13b11-11h13p11--------------11-13-|
D|---------------------------14---11--14---------|
A|-----------------------------------------------|
E|-----------------------------------------------|

e|-----------------------12---------------------------------------------------------------------|
B|--12------12-----12/14----------------------------12------------------------------------------|
G|------13------13-----------13--11----11-----11/13----13--11----11----11b13-----------------11-|
D|----------------------------------14-----14-----------------14-----14------14p11-----11-14----|
A|----------------------------------------------------------------------------------14----------|
E|----------------------------------------------------------------------------------------------|

                                                   tremolo pick 13
e|---------12----------------------------------------------------|
B|-----------12-9----------12-14-12-------------------12--13~~~~-|
G|--11b13---------13b11-13---------13-----11----11-13------------|
D|-------------------------------------------14------------------|
A|---------------------------------------------------------------|
E|---------------------------------------------------------------|

e|-------------------------------------|
B|-13~~/14-----12--12b14b12------------|
G|---------13--------------------------|
D|---------------------------14--------|
A|-------------------------------------|
E|-------------------------------------|



************************************
|(n) Ghost note
| h  Hammer-on
| p  Pull-off
| b  Bend
| /  Slide up
| ~  Vibrato
| x  Dead note 
************************************

            
            
Suggest correction
Creating personal tab
Creating personal tab
You can edit any tab online and save it as your Personal.

You can edit, replace or remove any tab part or add personal notes – all changes will be seen only by you.

Personal tabs can be accessed anytime from any device, even offline.
Learn more »
Give kudos to tab author, rate the tab!
1 2 3 4 5
comments
print report bad tab
1 comment total.
0 reply
gaudetsamanth 10 Aug 24, 2017 02:07 PM

very organized and easy to follow

guest
You may want to rate the tab now too:
select rating
Wanna post a correction for this tab? Suggest correction