Oops, an error
Loading. Please wait.

Simply tab

version 1
version 1

Whole song

by Pillar
2,394 views 1 this week
2 commentsread comments
1 2 3 4 5
2 more votes to show rating
add to favorites
×
Save as Personal and add changes to this tab that will be seen only by you. Learn more ›
×
You can save this tab as Personal to edit and correct it or add notes. All changes will be seen only by you. Learn more »
launch autoscroll
font size
0
reset
how to read this tab
guitar tuner
edit
Autoscroll
slow
fast
+/-
esc
set tempo
stop
Band- Pillar
Song- Simply

This song is played in drop C
Drop C tunning is:
(High to Low)
1st D
2nd A
3rd F
4th C
5th G
6th C

INTRO:

The other tabs for this song just play single notes for the intro
and they left out the constant bass note

Here is the intro with the constant bass note on the
C string. It gives it a fuller sound.

D----------------------------------------------------|
A----------------------------------------------------|   Play
F--------3------5-------0-------7------3------5-5----|   x11
C-----0------0------0-------0------0------0----------|
G----------------------------------------------------|
C----------------------------------------------------|
                                                        then play this
D----------------------------------------------------|   x1
A----------------------------------------------------|
F--------3------5-----2--0---------------------------|
C-----0-----0------0--------3-2-0--------------------|
G----------------------------------------------------|
C----------------------------------------------------|


verse 1:

D----------------------------------------------------|
A----------------------------------------------------|
F----------------------------2h3---------------------|
C--------3-----2h3-----5-----------------------------|
G-----0-----0-------0-----0--------------------------|
C----------------------------------------------------|

D----------------------------------------------------|
A----------------------------------------------------|
F----------------------------------------------------|
C--------3-----2h3-----5------3p2--------------------|
G-----0-----0-------0-----0--------------------------|
C----------------------------------------------------|

pre chorus:

D-------------------|
A-------------------|
F---------------5---|
C-----0----2----5---|
G-----0----2----3---|
C-----0----2--------|


Chorus:

D----------------------------------------------------|
A----------------------------------------------------|
F--------------5-----------2-------------------------|
C----0-0---------0-0----------3-3-xx-3-3-------------|
G----0-0--3--5---0-0--3--5----3-3-xx-3-3-------------|
C----0-0---------0-0----------3-3-xx-3-3-------------|

D-------------------------------------------------------------|
A-------------------------------------------------------------|
F------------------------------------------10-10-10-10-10-10--|
C----x--3h5--5-5---x--3h5--5-5--x--3-3-3---10-10-10-10-10-10--|
G----x--3h5--5-5---x--3h5--5-5--x--3-3-3---8--8--8--8--8--8---|
C----x--3h5--5-5---x--3h5--5-5--x--3-3-3---8--8--8--8--8--8---|

Play verse 2(same as verse 1) and pre chorus
Play Chorus again


Bridge:

On the 5b it's 2 full bends

D----------------------------------------------------|
A----------------------------------------------------|
F-------------------------------10-10-10-------------|
C----0-0------0-0------0-0------10-10-10-------------|
G----0-0--5b--0-0--5b--0-0--5b--8--8--8--------------|
C----0-0------0-0------0-0------8--8--8--------------|

D----------------------------------------------------|
A----------------------------------------------------|
F-------------------------------10-10-10-------------|
C----0-0------0-0------0-0------10-10-10-------------|
G----0-0--5b--0-0--5b--0-0--5b--8--8--8--------------|
C----0-0------0-0------0-0------8--8--8--------------|

D--------------------|
A--------------------|
F--------------------|
C----0--2--3--5------|
G----0--2--3--5------|
C----0--2--3--5------|

D----------------------------------------------------|
A----------------------------------------------------|
F-------------------------------10-10-10-------------|
C----0-0------0-0------0-0------10-10-10-------------|
G----0-0--5b--0-0--5b--0-0--5b--8--8--8--------------|
C----0-0------0-0------0-0------8--8--8--------------|

D--------------------|
A--------------------|
F--------------------|
C----0--2--3--5------|
G----0--2--3--5------|
C----0--2--3--5------|

D----------------------------------------------------|
A----------------------------------------------------|
F-------------------------------10-10-10-------------|
C----0-0------0-0------0-0------10-10-10-------------|
G----0-0--5b--0-0--5b--0-0--5b--8--8--8--------------|
C----0-0------0-0------0-0------8--8--8--------------|

D-----------------------------------------------------------|
A-----------------------------------------------------------|
F-------------------------10---------10---------10-----10---|
C----0--2--3--5---------10--10-----10--10-----10--10---10---|
G----0--2--3--5--------8------8---8------8---8------8--8----|
C----0--2--3--5------/8---------8----------8-----------8----|

Play Chorus again

outro:

D-------------------------------------|
A-------------------------------------|
F------------------------10-10-10-----|
C----0-0--0-0--0-0---xx--10-10-10-----|
G----0-0--0-0--0-0---xx--8--8--8------|
C----0-0--0-0--0-0---xx--8--8--8------|

            
            
Suggest correction
Creating personal tab
Creating personal tab
You can edit any tab online and save it as your Personal.

You can edit, replace or remove any tab part or add personal notes – all changes will be seen only by you.

Personal tabs can be accessed anytime from any device, even offline.
Learn more »
Give kudos to tab author, rate the tab!
1 2 3 4 5
comments
print report bad tab
2 comments total.
0 reply
rokrdude 100 Feb 21, 2007 07:42 AM

a couple things the intro is bass
the beginging of the chorus goes like this
c------------10--------------
g--------------------------10
c-12-0-10-12----12-0-10-12---
then at the begining of the bridge try playing this
f----7b-b--------------------------------
c-00-x-----------------------------------
g-00-5b-b--------------------------------
c-00-------------------------------------
PM
other thab that it is a pretty acurate tab

0 reply
guitar4life97 109 Nov 12, 2009 10:25 AM

The correction above is exactly what I thought...
but I also have a correction....

@ the end of the bridge,it goes....

F-----9-------10-------9----10~
C---10-10---10--10---10-10--10~
G--8-------8--------8-------8~
C-8-------8--------8--------8~

Oh Yeah, and I dont think the verse is perfect,but its ok...
it just doesnt sound right to me :(

guest
You may want to rate the tab now too:
select rating
Wanna post a correction for this tab? Suggest correction