Oops, an error
Loading. Please wait.
We have an official Ride On Shooting Star tab made by UG professional guitarists. Check out the tab »
×
by Pillows
1,861 views 3 this week
no commentswrite comment
1 2 3 4 5
2 more votes to show rating
add to favorites
×
Save as Personal and add changes to this tab that will be seen only by you. Learn more ›
×
You can save this tab as Personal to edit and correct it or add notes. All changes will be seen only by you. Learn more »
launch autoscroll
font size
0
reset
how to read this tab
guitar tuner
edit
Autoscroll
slow
fast
+/-
esc
set tempo
stop
	Ride on shooting star
	
	By: The Pillows
	
	standard tuning

tabbed by Luis Uribe
email: kn56k@yahoo.com


 /  slide
 x chick strum (muted stings hit hard)

Intro
             (F-bar 5th fret)
e-------------5555--5555-----------|
b-------------5555--5555-----------|
g--777--------6666--6666-----------|
d-------------7777--7777-----------|
a-----0-8/9---7777--7777-----------|
E-------------5555--5555-----------|

e-------------5555--5555-----------|
b-------------5555--5555-----------|
g--777--------6666--6666-----------|
d-------------7777--7777-----------|
a-----0-8/9---7777--7777-----------|
E-------------5555--5555-----------|   x 4

pre-chorus
e-----------------------------------------------|
b-----------------------------------------------|
g--------------------------------99999999-------|
d--5555555--44444444-/-99999999--99999999-------|
a--5555555--44444444-/-99999999--77777777-------|
E--3333333--22222222-/-77777777-----------------|
	                           ^				   
					   (Guitar 2 does em chord)
                              e-----------|
                              b-----------|
                              g-----------|
                              d--22222222-|
                              a--22222222-|
                              E-----------|

e-------------------------------------------|
b-------------------------------------------|
g--------------------7777777----------------|
d--5555555--7777777--7777777---7-9-7-9-7-9--|
a--5555555--7777777--5555555---7-9-7-9-7-9--|
E--3333333--5555555------------5-7-5-7-5-7--|
                  
chorus
e-------------------------------------------|
b-------------------------------------------|
g---------------7-77------------------------| x 2
d--5555555--9-7-7-77---5555555--7-999-------|
a--5555555--9-7-5-55---5555555--7-999-------|
E--3333333--7-5--------3333333--5-777-------|


verse
             (F-bar 5th fret)
e-------------5555--5555-----------|
b-------------5555--5555-----------|
g--777--------6666--6666-----------|
d-------------7777--7777-----------|
a-----0-8/9---7777--7777-----------|
E-------------5555--5555-----------|   x 4

5th time                           6th time
verse                             verse      (F-bar + chickstrm)
e---------------15--15--15--15-| |-----------5x5x5x5-|
b------------/14--14--14--14---| |-----------5x5x5x5-|
g--777-------------------------| |-777-------6x6x6x6-|
d------------------------------| |-----------7x7x7x7-|
a-----0-8/9--------------------| |----0-8/9--7x7x7x7-|
E------------------------------| |-----------5x5x5x5-|

pre-chorus                      (em chord)
e-----------------------------------------------|
b-----------------------------------------------|
g-----------------------------------------------|
d--5555555--44444444-/-99999999--22222222-------|
a--5555555--44444444-/-99999999--22222222-------|
E--3333333--22222222-/-77777777-----------------|
	                  

e--------------------------------------------|
b--------------------------------------------|
g--------------------777-6767----------------|
d--5555555--7777777--777-6767---7-9-7-9-7-9--|
a--5555555--7777777--555-4545---7-9-7-9-7-9--|
E--3333333--5555555-------------5-7-5-7-5-7--|
                  
chorus
e-------------------------------------------|
b-------------------------------------------|
g---------------7-77------------------------| x 4
d--5555555--9-7-7-77---5555555--7-999-------|
a--5555555--9-7-5-55---5555555--7-999-------|
E--3333333--7-5--------3333333--5-777-------|

weep beep weep beep YEAH!!!
e----------------|
b----------------|
g----55-55--7----|
d----55-55--7----|
a----33-33--5----|
E----------------|

end verse
             (F-bar 5th fret)
e-------------5555--5555-----------|
b-------------5555--5555-----------|
g--777--------6666--6666-----------|
d-------------7777--7777-----------|
a-----0-8/9---7777--7777-----------|
E-------------5555--5555-----------|   x 3

End
e-------------|
b-------------|
g-777/--------|
d-777/--------|
a------0-8/9--|
E------9-9/10-|

only thing missing are the small solo riffs at the end of each Chorus
if some one figures the those out please email me Kn56k@yahoo.com

            
            
Suggest correction
Creating personal tab
Creating personal tab
You can edit any tab online and save it as your Personal.

You can edit, replace or remove any tab part or add personal notes – all changes will be seen only by you.

Personal tabs can be accessed anytime from any device, even offline.
Learn more »
Give kudos to tab author, rate the tab!
1 2 3 4 5
comments
print report bad tab
guest
Wanna post a correction for this tab? Suggest correction