Oops, an error
Loading. Please wait.

Pogo En El Ascensor tab

by Pilsen
40 views 1 this week
no commentswrite comment
1 2 3 4 5
3 more votes to show rating
add to favorites
×
Save as Personal and add changes to this tab that will be seen only by you. Learn more ›
×
You can save this tab as Personal to edit and correct it or add notes. All changes will be seen only by you. Learn more »
launch autoscroll
font size
0
reset
how to read this tab
guitar tuner
edit
Autoscroll
slow
fast
+/-
esc
set tempo
stop
[Intro/Main Riff]
e|------------------|------------------|--------------|---------------------------|
B|------------------|------------------|--------------|-----5---------------------|
G|----------------5-|----------------5-|-7--5-4-5-7---|-5-7----7-5-7-5-4-5-4------|
D|-7--5-7-5-7-5-7---|-7--5-7-5-7-5-7---|------------5-|---------------------------|
A|------------------|------------------|--------------|---------------------------|
E|------------------|------------------|--------------|---------------------------|

e|------------------|------------------|--------------|---------------------------|
B|------------------|------------------|--------------|-----5---------------------|
G|----------------5-|----------------5-|-7--5-4-5-7---|-5-7----7-5-7-5-4-5-4-2----|
D|-7--5-7-5-7-5-7---|-7--5-7-5-7-5-7---|------------5-|---------------------------|
A|------------------|------------------|--------------|---------------------------|
E|------------------|------------------|--------------|---------------------------|

[Verse 1]
e|-----------------------------------|---------------------------------------|
B|-----------------------------------|--------8-------8----------------------|
G|-----------------------------------|-9--7-9-x-9-7-9-x-9--------------------|
D|-----------------------------------|-7--5-7-7-7-5-7-7-7--------------------| (x3)
A|-----------------------------------|---------------------------------------|
E|-----------------------------------|---------------------------------------|

e|-----------------------------------|---------------------------------------|
B|-----------------------------------|--------8------------------------------|
G|-----------------------------------|-9--7-9-x-9----------------------------|
D|-----------------------------------|-7--5-7-7-7----------------------------| 
A|-----------------------------------|---------------------------------------|
E|-----------------------------------|---------------------------------------|

[Chorus]
e|-----------------------------------------|
B|-----------------------------------------|
G|-10-10-10-10-10-10-10-10-----------------|
D|-10-10-10-10-10-10-10-10-7-7-7-7-7-7-7-7-| (x2)
A|-8--8--8--8--8--8--8--8--7-7-7-7-7-7-7-7-|
E|-------------------------5-5-5-5-5-5-5-5-|

e|-----------------------------------------|
B|-----------------------------------------|
G|-10-10-10-10-10-10-10-10-5-5-5-5-5-5-5-5-|
D|-10-10-10-10-10-10-10-10-5-5-5-5-5-5-5-5-|
A|-8--8--8--8--8--8--8--8--3-3-3-3-3-3-3-3-|
E|-----------------------------------------|

e|---------------------------------|---------------------------------|
B|---------------------------------|---------------------------------|
G|---------------------------------|---------------------------------|
D|---------------------------------|-------------------------7-7-7-7-|
A|---------------------------------|-----------------7-7-7-7-7-7-7-7-|
E|-3-3-3-3-3-3-3-3-3-3-3-3-3-3-3-3-|-5-5-5-5-5-5-5-5-5-5-5-5-5-5-5-5-|
PM -------------------------------------------------

[Main Riff]
e|------------------|------------------|--------------|---------------------------|
B|------------------|------------------|--------------|-----5---------------------|
G|----------------5-|----------------5-|-7--5-4-5-7---|-5-7----7-5-7-5-4-5-4------|
D|-7--5-7-5-7-5-7---|-7--5-7-5-7-5-7---|------------5-|---------------------------|
A|------------------|------------------|--------------|---------------------------|
E|------------------|------------------|--------------|---------------------------|

e|------------------|------------------|--------------|---------------------------|
B|------------------|------------------|--------------|-----5---------------------|
G|----------------5-|----------------5-|-7--5-4-5-7---|-5-7----7-5-7-5-4-5-4-2----|
D|-7--5-7-5-7-5-7---|-7--5-7-5-7-5-7---|------------5-|---------------------------|
A|------------------|------------------|--------------|---------------------------|
E|------------------|------------------|--------------|---------------------------|

[Verse 2]
e|-----------------------------------|---------------------------------------|
B|-----------------------------------|--------8-------8----------------------|
G|-----------------------------------|-9--7-9-x-9-7-9-x-9--------------------|
D|-----------------------------------|-7--5-7-7-7-5-7-7-7--------------------| (x3)
A|-----------------------------------|---------------------------------------|
E|-----------------------------------|---------------------------------------|

e|-----------------------------------|---------------------------------------|
B|-----------------------------------|--------8------------------------------|
G|-----------------------------------|-9--7-9-x-9----------------------------|
D|-----------------------------------|-7--5-7-7-7----------------------------| 
A|-----------------------------------|---------------------------------------|
E|-----------------------------------|---------------------------------------|

[Chorus]
e|-----------------------------------------|
B|-----------------------------------------|
G|-10-10-10-10-10-10-10-10-----------------|
D|-10-10-10-10-10-10-10-10-7-7-7-7-7-7-7-7-| (x2)
A|-8--8--8--8--8--8--8--8--7-7-7-7-7-7-7-7-|
E|-------------------------5-5-5-5-5-5-5-5-|

e|-----------------------------------------|---------------------------------|
B|-----------------------------------------|---------------------------------|
G|-10-10-10-10-10-10-10-10-5-5-5-5-5-5-5-5-|---------------------------------|
D|-10-10-10-10-10-10-10-10-5-5-5-5-5-5-5-5-|-5-5-5-5-5-5-5-5-7-7-7-7-7-7-7-7-|
A|-8--8--8--8--8--8--8--8--3-3-3-3-3-3-3-3-|-5-5-5-5-5-5-5-5-7-7-7-7-7-7-7-7-|
E|-----------------------------------------|-3-3-3-3-3-3-3-3-5-5-5-5-5-5-5-5-|

e|-----------------------------------------|
B|-----------------------------------------|
G|-10-10-10-10-10-10-10-10-----------------|
D|-10-10-10-10-10-10-10-10-7-7-7-7-7-7-7-7-| (x2)
A|-8--8--8--8--8--8--8--8--7-7-7-7-7-7-7-7-|
E|-------------------------5-5-5-5-5-5-5-5-|

e|---------------------------------|---------------------------------|
B|---------------------------------|---------------------------------|
G|---------------------------------|---------------------------------|
D|---------------------------------|-------------------------7-7-7-7-|
A|---------------------------------|-----------------7-7-7-7-7-7-7-7-|
E|-3-3-3-3-3-3-3-3-3-3-3-3-3-3-3-3-|-5-5-5-5-5-5-5-5-5-5-5-5-5-5-5-5-|
PM -------------------------------------------------

[Main Riff]
e|------------------|------------------|--------------|---------------------------|
B|------------------|------------------|--------------|-----5---------------------|
G|----------------5-|----------------5-|-7--5-4-5-7---|-5-7----7-5-7-5-4-5-4------|
D|-7--5-7-5-7-5-7---|-7--5-7-5-7-5-7---|------------5-|---------------------------|
A|------------------|------------------|--------------|---------------------------|
E|------------------|------------------|--------------|---------------------------|

e|------------------|------------------|--------------|---------------------------|
B|------------------|------------------|--------------|-----5---------------------|
G|----------------5-|----------------5-|-7--5-4-5-7---|-5-7----7-5-7-5-4-5-4-2----|
D|-7--5-7-5-7-5-7---|-7--5-7-5-7-5-7---|------------5-|---------------------------|
A|------------------|------------------|--------------|---------------------------|
E|------------------|------------------|--------------|---------------------------|

[Pre-Solo]
e|--------------------------|------------------------|
B|--------------------------|------------------------|
G|--------------------------|------------------------| (x2)
D|-2-------------------7-7--|-2----------------------|
A|-0-3-2-0-3-2-0-3-2-0-5-5--|-0-3-2-0-3-2-0-3-2-0-5--|
E|--------------------------|---------------------3--|

[Solo]
e|-----17----17----17----17----17--|---17----17----17----17--19-20~--|-19-17-19-20-19-17-19-20---------|
B|--17----17----17----17----17-----|-17----17----17---17-------------|-------------------------17~-----|
G|---------------------------------|---------------------------------|---------------------------------|
D|---------------------------------|---------------------------------|---------------------------------|
A|---------------------------------|---------------------------------|---------------------------------|
E|---------------------------------|---------------------------------|---------------------------------|

e|-5p3-------------3-5p3-------------3-|-5p3---5p3-----5p3-----5p3-----5p3-----|
B|-----5p3-1-----5-------5p3-1-----5---|-----5-----5p3-----5p3-----5p3-----5p3-|
G|-----------2p0---------------2p0-----|---------------------------------------|
D|-------------------------------------|---------------------------------------|
A|-------------------------------------|---------------------------------------|
E|-------------------------------------|---------------------------------------|

e|-15-15-15-13-13-13-12-12-12-13-13-13-|
B|-------------------------------------|
G|-------------------------------------| (x2)
D|-------------------------------------|
A|-------------------------------------|
E|-------------------------------------|

e|-15-13-12--------------------------------|
B|----------15-13-15-13--------------------|
G|----------------------14-12-9-7-9-7------|
D|------------------------------------10-9-|
A|-----------------------------------------|
E|-----------------------------------------|

[Outro]
e|-----|-----|-----------------|
B|-----|-----|-----------------|
G|-----|-----|-----9~--7~--5~--|
D|-7~--|-7~--|-7~--------------|
A|-----|-----|-----------------|
D|-----|-----|-----------------|

e|------------------|
B|------------------|
G|----------------5-| (x8)
D|-7--5-7-5-7-5-7---|
A|------------------|
E|------------------|

e|-----------------------------------------|
B|-----------------------------------------|
G|-10-10-10-10-10-10-10-10-----------------|
D|-10-10-10-10-10-10-10-10-7-7-7-7-7-7-7-7-| (x2)
A|-8--8--8--8--8--8--8--8--7-7-7-7-7-7-7-7-|
E|-------------------------5-5-5-5-5-5-5-5-|

e|-----------------------------------------|
B|-----------------------------------------|
G|-10-10-10-10-10-10-10-10-5-5-5-5-5-5-5-5-|
D|-10-10-10-10-10-10-10-10-5-5-5-5-5-5-5-5-|
A|-8--8--8--8--8--8--8--8--3-3-3-3-3-3-3-3-|
E|-----------------------------------------|

e|---------------------------------|---------------------------------|
B|---------------------------------|---------------------------------|
G|---------------------------------|---------------------------------|
D|---------------------------------|-----------------7---------------|
A|---------------------------------|-----------------7---------------|
E|-3-3-3-3-3-3-3-3-3-3-3-3-3-3-3-3-|-5-5-5-5-5-5-5-5-5---------------|
PM -------------------------------------------------


************************************

| x   Dead note
| h   Hammer-on
| p   Pull-off
| ~   Vibrato
| PM  Palm mute

************************************

            
            
Suggest correction
Creating personal tab
Creating personal tab
You can edit any tab online and save it as your Personal.

You can edit, replace or remove any tab part or add personal notes – all changes will be seen only by you.

Personal tabs can be accessed anytime from any device, even offline.
Learn more »
Give kudos to tab author, rate the tab!
1 2 3 4 5
comments
print report bad tab
guest
You may want to rate the tab now too:
select rating
Wanna post a correction for this tab? Suggest correction