Oops, an error
Loading. Please wait.

Penelope bass

version 2
version 2

Whole song

by Pinback
5,506 views 15 this week
1 commentread comment
1 2 3 4 5
x 3
add to favorites
×
Save as Personal and add changes to this tab that will be seen only by you. Learn more ›
×
You can save this tab as Personal to edit and correct it or add notes. All changes will be seen only by you. Learn more »
launch autoscroll
font size
0
reset
guitar tuner
edit
Autoscroll
slow
fast
+/-
esc
set tempo
stop
Author
Difficulty
I'm gonna go with Standard tuning on this one.
Not 100% sure on tuning but everything else should be fine.

Intro
When the drums come in.

-------------------------------------------------------------|
-------------------------------------------------------------|
-5/77777777--------------------------------------------------|
-------------------------------------------------------------|

Verse

----------------------7---|
9-----------------7-9---9-|
--7-5/10------------------|
----------8-8-88----------|

You could slide from the 7 to the 9, and you could just go to the 3 on the A instead of 
on the E for an added flair.

Chorus
This section is played twice

---------------------------------------------------------------|
----------------------9-----9-----9---9------------------------|
7777777777777777-6666---666---666---6---6----------------------|
---------------------------------------------------------------|

---------------------------------------------------------------|
---------------------------------------------------------------|
10101010101010101010101010101010-9999-77777777-----------------|
---------------------------------------------------------------|

------5----5---------4----4------------------------------------|
---------------------------------------------------------------|
3333----3----3--2222---2----2----------------------------------|
---------------------------------------------------------------|

Rest for a bit and play the intro again when the drums enter.
Play the verse again and then the chorus until the song fades.

The timing all together is kinda goofy and the octaves in the end of the chorus could be 
out if you don't want them. Just continue to play the C and the B# if that's the case.

Good Luck and keep on rockin'!!!

Jebus.

            
            
Suggest correction
Creating personal tab
Creating personal tab
You can edit any tab online and save it as your Personal.

You can edit, replace or remove any tab part or add personal notes – all changes will be seen only by you.

Personal tabs can be accessed anytime from any device, even offline.
Learn more »
Give kudos to tab author, rate the tab!
1 2 3 4 5
comments
print report bad tab
1 comment total.
+2 reply
Aikoj 243 Aug 19, 2013 10:49 AM

"Just continue to play the C and the B# if that's the case."
B# is C.

guest
You may want to rate the tab now too:
select rating
Wanna post a correction for this tab? Suggest correction