Oops, an error
Loading. Please wait.

Crazyhorse tab

398 views 1 this week
2 commentsread comments
1 2 3 4 5
3 more votes to show rating
add to favorites
×
Save as Personal and add changes to this tab that will be seen only by you. Learn more ›
×
You can save this tab as Personal to edit and correct it or add notes. All changes will be seen only by you. Learn more »
launch autoscroll
font size
0
reset
how to read this tab
guitar tuner
edit
Autoscroll
slow
fast
+/-
esc
set tempo
stop
Author
Difficulty
-------------------------------------------------------------------------------
                             Crazyhorse ¡V Pinhead Gunpowder
-------------------------------------------------------------------------------

Tabbed by: Lee Debenham
Email:lee_debo@fsmail.net

Tuning:Standard

(sorry if lyrics aren¡¦t accurate but you get an idea where you are in the song)

Intro:


A minor (slowly strum this chord once)
e|------------------------------------------------------------------------------|
B|---------1--------------------------------------------------------------------|
G|---------2--------------------------------------------------------------------|
D|---------2--------------------------------------------------------------------|
A|---------0--------------------------------------------------------------------|
E|------------------------------------------------------------------------------|

Verse (same for all verses)
e|------------------------------------------------------|
B|------------------------------------------------------|
G|-------------------9-----------------3-------------9--|
D|---------3---------9-----------------3-------------9--|
A|---------3~--------7-----------------5-------------7--|
E|---------5--------------------------------------------|  x1
 x6                x6--|             x6
Digging with a ¡K¡K¡K¡K¡Kmischievous grin¡K¡Kstaring¡K¡KShe drew me in

Verse (second time note the first chord is played 6 times instead of 1)
e|------------------------------------------------------|
B|------------------------------------------------------|
G|-------------------9-----------------3-------------9--|
D|---------3---------9-----------------3-------------9--|
A|---------3~--------7-----------------5-------------7--|
E|---------5--------------------------------------------|  x6
 x6                x6--|             x6

Play until chorus
Chorus:
e|-----------------------------------------------------------------------------------|
B|-----------------------------------------------------------------------------------|
G|-------7------9--------------------------------------------------------------------|
D|-------7 ~----9 ~------------------------------------------------------------------|
A|-------5------7--------------------------------------------------------------------|
E|-----------------------------------------------------------------------------------|
You just kissed¡KCrazy Horse¡¦s girl¡K

After chorus:

e|-----------------------------------------------------------------------------------|
B|-----------------------------------------------------------------------------------|
G|-----------------------------------------------------------------------------------|
D|--------7-----5-----2--------------------------------------------------------------|
A|--------7-----5-----2--------------------------------------------------------------|
E|--------5-----3-----0---------------------------------------------------------|x6--|   x6
  x12--|

       ¡KFriend


Thanks any questions just e-mail me ļ

            
            
Suggest correction
Creating personal tab
Creating personal tab
You can edit any tab online and save it as your Personal.

You can edit, replace or remove any tab part or add personal notes – all changes will be seen only by you.

Personal tabs can be accessed anytime from any device, even offline.
Learn more »
Give kudos to tab author, rate the tab!
1 2 3 4 5
comments
print report bad tab
2 comments total.
0 reply
Bouncing_Souls 31 Apr 26, 2006 09:41 AM

ok it came out wrong, listen to the song and u will hear how many times the chords are played (the first time the verse is played the first chord is only played once once thats it really not hard)

0 reply
Bouncing_Souls 31 Jul 17, 2008 08:42 AM

Verse (same for all verses)
e|------------------------------------------------------|
B|------------------------------------------------------|
G|-------------------9-----------------3-------------9--|
D|---------7---------9-----------------3-------------9--|
A|---------7~--------7-----------------5-------------7--|
E|---------5--------------------------------------------| x1
x6 x6--| x6

guest
You may want to rate the tab now too:
select rating
Wanna post a correction for this tab? Suggest correction