Oops, an error
Loading. Please wait.
We have an official Breathe tab made by UG professional guitarists. Check out the tab »
×
47,682 views 276 this week
16 commentsread comments
1 2 3 4 5
x 21
add to favorites
×
Save as Personal and add changes to this tab that will be seen only by you. Learn more ›
×
You can save this tab as Personal to edit and correct it or add notes. All changes will be seen only by you. Learn more »
launch autoscroll
font size
0
reset
how to read this tab
guitar tuner
backing track
0:00
0:00
edit
Autoscroll
slow
fast
+/-
esc
set tempo
stop
Author
                                     BREATHE
                            As recorded by Pink Floyd
                   (From the 1973 Album DARK SIDE OF THE MOON)

Words and Music by Roger Waters, David Gilmour & Rick Wright
Transcribed by www.mikesguitarsite.co.uk

Gtr I (E A D G B E) - 'David Gilmour - Rhythm w/slight dist & phaser'
Gtr II (E A D G B E) - 'David Gilmour - Lap steel arr. for gtr.'
Gtr III (E A D G B E) - 'David Gilmour - Lap steel arr. for gtr.'

 Intro
  Q=64
 4/4
  Gtr I
|---------------------|------------------------|
|-!0----(0)---0-(0)---|-------2--(2)---3-(3)-2-|
|-!0----(0)---------0-|-----2------------------|
|-!4----(4)-----------|---2--------------------|
|-!2----(2)-----------|-0------------0---------|
|-!0----(0)-0---------|------------------------|


|----!0--(0)---0-(0)---|-----------------------------|
|----!0--(0)---------0-|-------2-------3---2-(2)-2---|
|----!0--(0)-----------|-----2-----------0-----------|
|----!4--(4)-----------|---2-------2s4---------------|
|----!2--(2)-2---------|-0-------0-------------------|
|-0--------------------|-----------------------------|


|---------------0-(0)--|------------------------|
|-----!0--(0)--------0-|------2---3-----2-(2)-2-|
|-----!0--(0)----------|----2-------2-----------|
|-----!4--(4)----------|--------2-----2---------|
|-----!2--(2)----------|--0---------------------|
|--0----------0--------|------------------------|
|
| Gtr II
|-12-------------------|------------------------|
|-12--------------12s==|=14---------------------|
|-12--------------12s==|=14---------------------|
|----------------------|------------------------|
|----------------------|------------------------|
|----------------------|------------------------|


|----0-------------------|-----------------------|
|------0----------0-(0)--|--------2--(2)-3-(3)-2-|
|--------0--(0)--------0-|------2--------2-(2)---|
|------------------------|----2------------------|
|------------------------|--0--------------------|
|--0------------0--------|-----------------------|
|
|-12---------------------|-----------------------|
|-12----------------12s==|=14--------------------|
|-12----------------12s==|=14--------------------|
|-------------------12s==|=14--------------------|
|------------------------|-----------------------|
|------------------------|-----------------------|


|----0-----------------------|------------------------------------------|
|------0-----------0-(0)-----|----------10------12-(12)------10-(10)--8-|
|--------0--------------0----|-------------0------------0-------------0-|
|----------4-(4)-------------|------/11------11-----------11------------|
|----------------2-----------|---0--------------------------------------|
|--0-------------------------|------------------------------------------|
|
| Gtr III
|  <
|-14----------------------10-|-(10)s=12------------(12)---------(12)\---|
|----------------------------|------------------------------------------|
|----------------------------|------------------------------------------|
|----------------------------|------------------------------------------|
|----------------------------|------------------------------------------|
|----------------------------|------------------------------------------|
|
| Gtr II
|-12-------------------------|------------------------------------------|
|-12-----------------12s=====|==14--------------------------------------|
|-12-----------------12s=====|==14--------------------------------------|
|----------------------------|------------------------------------------|
|----------------------------|------------------------------------------|
|----------------------------|------------------------------------------|


|----!0-------------0---|------------------------------------------|
|----!0---------------0-|---------14-------------12-------------10-|
|----!0-----------------|------------0--(0)------------------------|
|-------4--(4)---4------|-----/14------------12-(12)-(12)s11-11----|
|--------------2--------|--0---------------------------------------|
|--0--------------------|------------------------------------------|
|
|  <
|-----------------------|------------------------------------------|
|-12---------------12s==|=14-----------(14)\-----------------------|
|-----------------------|------------------------------------------|
|-----------------------|------------------------------------------|
|-----------------------|------------------------------------------|
|-----------------------|------------------------------------------|
|
|-12--------------------|------------------------------------------|
|-12---------------12s==|=14---------------------------------------|
|-12---------------12s==|=14---------------------------------------|
|------------------12s==|=14---------------------------------------|
|-----------------------|------------------------------------------|
|-----------------------|------------------------------------------|


|----!0----------0-(0)-----|-----------------------------|
|----!0----------------0---|-------2---3--(3)----2-(2)---|
|----!0------------------0-|----2----------------------2-|
|-------4--(4)-------------|---------2-------------------|
|--------------------------|--0----------------0---------|
|--0-----------0-----------|-----------------------------|
|
|  <
|-14-------14---------10s==|=11s==12-----(12)\-----------|
|--------------------------|-----------------------------|
|--------------------------|-----------------------------|
|--------------------------|-----------------------------|
|--------------------------|-----------------------------|
|--------------------------|-----------------------------|
|
|-12-----------------------|-----------------------------|
|-12---------------12s=====|=14--------------------------|
|-12---------------12s=====|=14--------------------------|
|--------------------------|-----------------------------|
|--------------------------|-----------------------------|
|--------------------------|-----------------------------|


|----!0-----------------------|------------------------------|
|----!0-------------0-(0)-----|-----2---3--(3)-2-------(2)---|
|----!0------------------0----|----------------2-------(2)---|
|-------4-----(4)-------------|-------2----------------------|
|-----------------2-----------|--0---------------------------|
|--0--------------------------|------------------------------|
|
|          <
|-----------------------------|------------------------------|
|---------12-(12)----------12s|=14--------(14)---(14)\-------|
|-----------------------------|------------------------------|
|-----------------------------|------------------------------|
|-----------------------------|------------------------------|
|-----------------------------|------------------------------|
|
|-12--------------------------|------------------------------|
|-12------------------12s=====|=14---------------------------|
|-12------------------12s=====|=14---------------------------|
|---------------------12s=====|=14---------------------------|
|-----------------------------|------------------------------|
|-----------------------------|------------------------------|


|-!0----(0)---0-(0)----|-!2----(2)---2-(2)---2-|-----0------(0)---0-(0)-----|
|-!0----(0)---------0--|-!3----(3)---------3---|-----1------(1)-1-------1---|
|-!0----(0)-0-------0--|-!4----(4)-2-----------|-----2------(2)-----------2-|
|-!2----(2)-2----------|-!4----(4)-------------|-----3------(3)-------------|
|-!3----(3)------------|-!2----(2)-------------|-----3------(3)-------------|
|-!3----(3)------------|-!2----(2)-------------|----------------------------|
|
|  <
|-12-------------------|-----------------------|----------------------------|
|----------------------|-12--------------------|-12s13s==12-10--------------|
|----------------------|-----------------------|----------------------------|
|----------------------|-----------------------|----------------------------|
|----------------------|-----------------------|----------------------------|
|----------------------|-----------------------|----------------------------|
|
|----------------------|-----------------------|-----5----------------------|
|-12----12-------------|--7--------------------|-----5----------------------|
|-12----12-------------|--7--------------------|-----5----------------------|
|----------------------|-----------------------|----------------------------|
|----------------------|-----------------------|----------------------------|
|----------------------|-----------------------|----------------------------|


                 Verse
|-------------||--0--------(0)---|---------------------------|
|--3----6--4--||o-0--------(0)-0-|----------3-(3)---2-(2)----|
|--4----5--5--||--0--------(0)-0-|------------------------2--|
|--5----4--4--||--4--------(4)-4-|--------2-------2----------|
|--5----5--6--||o-2--------(2)-2-|-0--(0)--------------------|
|-------------||--0--------(0)---|---------------------------|
|
|-------------||-----------------|---------------------------|
|--8----6--4s=||o=5--------------|---------------------------|
|-------------||-----------------|---------------------------|
|-------------||-----------------|---------------------------|
|-------------||o----------------|---------------------------|
|-------------||-----------------|---------------------------|
|
|             Gtrs II, III
|-------------||-----------------|---------------------------|
|-12----------||o----------------|-2----------(2)-2s==14\----|
|-12----------||-------9\--------|-2----------(2)-2s==14\----|
|-12----------||-----------------|---------------------------|
|-------------||o----------------|---------------------------|
|-------------||-----------------|---------------------------|


|----0----------0-(0)----|-------------------------|----!0--------0-(0)---|
|------0-------------0---|--------2-3--(3)-2-(2)---|----!0--------------0-|
|--------0--(0)--------0-|------2---2--(2)-2-(2)-2-|----!0----------------|
|------------------------|----2------------2-(2)---|----!4----------------|
|------------------------|--0----------------------|-------2--(2)---------|
|--0---------------------|-------------------------|--0-------------------|
|
| Gtrs II, III
|  ~~                       ~~                        ~~
|-12---------------------|-------------------------|-12-------12\---------|
|-12--------------12s====|=14---------(14)S========|=12-------12\---------|
|-12--------------12s====|=14---------(14)S========|=12-------------------|
|------------------------|-------------------------|----------------------|
|------------------------|-------------------------|----------------------|
|------------------------|-------------------------|----------------------|


|----------------------------------|
|-------2------3-----2-(2)---------|
|-----2----------2---------2-------|
|---2------2-------2---------------|
|-0--------------------------------|
|----------------------------------|
|
|----------------------------------|
|-2-------(2)s14-------------(14)\-|
|-2-------(2)s14-------------(14)\-|
|----------------------------------|
|----------------------------------|
|----------------------------------|


|----!0--------0-(0)--|---------------------------||
|----!0-------------0-|------2-3--(3)---2-(2)-----||
|----!0---------------|----2---2--(2)---2-(2)-2---||
|----!4---------------|---------------------------||
|-------2--(2)--------|--0------------0-----------||
|--0------------------|---------------------------||
|
|  ~~
|-12------------------|---------------------------||
|-12-------------12s==|=14-------/14\-------------||
|-12-------------12s==|=14-------/14\-------------||
|---------------------|---------------------------||
|---------------------|---------------------------||
|---------------------|---------------------------||


 Chorus
|--0------(0)-0-|-2----(2)-2-(2)----|-0------(0)-0---|
|--0------(0)-0-|-3----(3)-3-(3)-3--|-1------(1)-1---|
|--0------(0)-0-|-2----(2)-2-(2)-2--|-2------(2)-----|
|--2------(2)---|-4----(4)-------4--|-3------(3)-----|
|--3------(3)---|-2----(2)----------|-3------(3)-----|
|---------------|-------------------|----------------|
|
|  ~~             ~~~~~~~~~~~~~~~~~~~~~~
|---------------|-------------------|-5--------------|
|-12------12\---|-7-----------------|-5--------------|
|-12------12\---|-7-----------------|-5--------------|
|---------------|-------------------|----------------|
|---------------|-------------------|----------------|
|---------------|-------------------|----------------|


|--------------||----------|-----*|
|--3----6--4--o||----------|-----*|
|--4----5--5---||-0--------|-----*|
|--3----4--4---||-2--------|-----*|
|--5----5--3--o||-2--------|-----*|
|--------------||-0--------|-----*|
|
|--------------||----------|-----*|
|-12----------o||----------|-----*|
|-12-----------||----------|-----*|
|-12-----------||----------|-----*|
|-------------o||----------|-----*|
|--------------||----------|-----*|


Tablature Legend
----------------
 h   - hammer-on
 p   - pull-off
 b   - bend
 pb  - pre-bend
 r   - bend release (if no number after the r, then release immediately)
 /\  - slide into or out of (from/to "nowhere")
 s   - legato slide
 S   - shift slide
  - natural harmonic
[n]  - artificial harmonic
n(n) - tapped harmonic
 ~   - vibrato
 tr  - trill
 T   - tap
 TP  - trem. picking
 PM  - palm muting
\n/  - tremolo bar dip; n = amount to dip
 \n  - tremolo bar down
 n/  - tremolo bar up
/n\  - tremolo bar inverted dip
 =   - hold bend; also acts as connecting device for hammers/pulls
 <>  - volume swell (louder/softer)
 x   - on rhythm slash represents muted slash
 o   - on rhythm slash represents single note slash

Misc Legend
-----------
 |  - bar
||  - double bar
||o - repeat start
o|| - repeat end
*|  - double bar (ending)
 :  - bar (freetime)
 $  - Segno
 &  - Coda
Tempo markers -  = BPM(8/16=s8/s16), where s8 = swing 8ths, s16 = swing 16ths


***************************************************************************************
* Generated using Power Tab Editor by Brad Larsen - http://powertab.guitarnetwork.org *
***************************************************************************************

            
            
Suggest correction
Creating personal tab
Creating personal tab
You can edit any tab online and save it as your Personal.

You can edit, replace or remove any tab part or add personal notes – all changes will be seen only by you.

Personal tabs can be accessed anytime from any device, even offline.
Learn more »
comments
print report bad tab
16 comments total. Showing first comments.
0 reply
Arnni 422 Feb 14, 2005 07:00 PM

could tab man keep em coming :>

0 reply
Pink_Floyd_Net 30 Feb 14, 2005 07:00 PM

The only thing i see missing is this part.....
e|---0---------------0--0------0--0--0--0--0--0--
B|----0---------0----2--2-----/14-14-14-12-12-10-
G|-----0----------0--0--0------0--0--0--0--0--0--
D|------4------------2--2--2--/14-14-14-12-12-11- ^upstroke
A|-------2-----------0--0------------------------ vdownstroke
E|0-------0---0----------------------------------
v ^..... v ^ v v v v v ^ v ^ v ^

Saw this on Making of The Dark Side of the Moon Dvd
Nice tabs though...finally some tabs worth viewing.

0 reply
private 111 Oct 09, 2005 09:35 AM

isnt the song called breathe not breathe in the air

guest
You may want to rate the tab now too:
select rating
Wanna post a correction for this tab? Suggest correction