Oops, an error
Loading. Please wait.

Chapter 24 bass

1,623 views 3 this week
3 commentsread comments
1 2 3 4 5
x 3
add to favorites
×
Save as Personal and add changes to this tab that will be seen only by you. Learn more ›
×
You can save this tab as Personal to edit and correct it or add notes. All changes will be seen only by you. Learn more »
launch autoscroll
font size
0
reset
guitar tuner
edit
Autoscroll
slow
fast
+/-
esc
set tempo
stop
Author
-------------------------------------------------------------------------------
			     Chapter 24 - Pink Floyd
-------------------------------------------------------------------------------

Tabbed By : R8:31b
e-mail: 

Tuning: Drop D


Repeated 6 Times Throughout The Song, [listen for Correct Timing]

G|-------|-----------------------|
D|-------|-----------------------|
A|--15\--|------0--3h5-3-0-3h5-3-|
D|-------|-0--4------------------|




            
            
Suggest correction
Creating personal tab
Creating personal tab
You can edit any tab online and save it as your Personal.

You can edit, replace or remove any tab part or add personal notes – all changes will be seen only by you.

Personal tabs can be accessed anytime from any device, even offline.
Learn more »
Give kudos to tab author, rate the tab!
1 2 3 4 5
comments
print report bad tab
3 comments total.
+1 reply
hospitalcleaner 73 Mar 09, 2009 11:53 PM

completely off.
it's in dropped d.

e|-------------------------------------------|
B|-------------------------------------------|
G|-------------------------------------------|
D|-------------------------------------------|
A|------0--3h5-3-0-3h5-3---------------------|
D|-0--4--------------------------------------|

0 reply
R8:31b 1,731 Mar 24, 2009 07:23 PM

0_o

0 reply
jesse.r.poulton 10 May 20, 2016 08:41 PM, edited on May 21 2016, 12:42 am

It is still off. An octave off.

guest
You may want to rate the tab now too:
select rating
Wanna post a correction for this tab? Suggest correction