Oops, an error
Loading. Please wait.

Dogs bass

version 2
version 2

Whole song

  • Complete version with all fills and variations.

Interactive

1,216 views 36 this week
2 commentsread comments
1 2 3 4 5
x 5
add to favorites
×
Save as Personal and add changes to this tab that will be seen only by you. Learn more ›
×
You can save this tab as Personal to edit and correct it or add notes. All changes will be seen only by you. Learn more »
launch autoscroll
font size
0
reset
guitar tuner
backing track
0:00
0:00
edit
Autoscroll
slow
fast
+/-
esc
set tempo
stop
Author
Difficulty
About this tab version
Complete version with all fills and variations. Was this info helpful? Yes No
Artist : Pink Floyd
Album : Animals
Song : Dogs

Autoscroller recommended. You're not prepared...

[Intro] 0:56
 4/4
G|----------------|----------------|----------------|----------------|
D|----------------|----------------|----------------|----------------|
A|----------------|----------------|----------------|----------------|
E|5---------------|----------------|----------------|----------------|
  1 + 2 + 3 + 4 +  1 + 2 + 3 + 4 +  1 + 2 + 3 + 4 +  1 + 2 + 3 + 4 +  

G|----------------|----------------|----------------|----------------|
D|----------------|----------------|----------------|----------------|
A|----------------|----------------|----------------|----------------|
E|4---------------|----------------|----------------|----------------|
  1 + 2 + 3 + 4 +  1 + 2 + 3 + 4 +  1 + 2 + 3 + 4 +  1 + 2 + 3 + 4 + 


[Verse] 1:15

G|----------------|----------------|----------------|----------------|
D|----------------|----------------|----------------|----------------|
A|5-----5---------|5-----5---------|5-----5---------|5-----5---------|
E|----------------|--------------5-|--------------5-|--------------1/|
  1 + 2 + 3 + 4 +  1 + 2 + 3 + 4 +  1 + 2 + 3 + 4 +  1 + 2 + 3 + 4 + 
 
G|----------------|----------------|----------------|----------------|
D|----------------|----------------|8---------------|--------------8-|
A|----------------|--------------8-|----------------|----------8-----|
E|6-----6---------|6-----6---------|------6---------|6-----6---------|
  1 + 2 + 3 + 4 +  1 + 2 + 3 + 4 +  1 + 2 + 3 + 4 +  1 + 2 + 3 + 4 +  

G|----------------|----------------|----------------|----------------|
D|----------------|----------------|7---------------|----------------|
A|----------------|----------------|----------------|----------------|
E|5-----5---------|5-----5---------|------5---------|5-----5---------|
  1 + 2 + 3 + 4 +  1 + 2 + 3 + 4 +  1 + 2 + 3 + 4 +  1 + 2 + 3 + 4 +  

G|----------------|----------------|----------------|----------------|
D|----------------|----------------|----------------|6-----6---------|
A|----------------|----------------|--------------6-|----------------|
E|4-----4---------|4-----4---------|4-----4---------|----------------|
  1 + 2 + 3 + 4 +  1 + 2 + 3 + 4 +  1 + 2 + 3 + 4 +  1 + 2 + 3 + 4 +
 
G|----------------|----------------|----------------|----------------|
D|----------------|----------------|----------------|----------------|
A|5-----5---------|5-----5---------|5-----5---------|5-----5---------|
E|----------------|--------------5-|--------------5-|--------------1/|
  1 + 2 + 3 + 4 +  1 + 2 + 3 + 4 +  1 + 2 + 3 + 4 +  1 + 2 + 3 + 4 + 
 
G|----------------|----------------|----------------|----------------|
D|----------------|----------------|8---------------|------------8---|
A|----------------|--------------8-|----------------|----------8-----|
E|6-----6---------|6-----6---------|------6---------|6-----6---------|
  1 + 2 + 3 + 4 +  1 + 2 + 3 + 4 +  1 + 2 + 3 + 4 +  1 + 2 + 3 + 4 +  

G|----------------|----------------|----------------|----------------|
D|----------------|7---------------|----------------|7--9--7---9-----|
A|----------------|----------------|--------------7-|----7-------7\--|
E|5-----5---------|------5---------|5-----5---------|----------------|
  1 + 2 + 3 + 4 +  1 + 2 + 3 + 4 +  1 + 2 + 3 + 4 +  1 + 2 + 3 + 4 +  

G|----------------|----------------|----------------|----------------|
D|----------------|----------------|----------------|----------------|
A|----------------|----------------|----------------|----------------|
E|4----(4)--------|4----(4)--------|4----(4)--------|(4)-------------|
  1 + 2 + 3 + 4 +  1 + 2 + 3 + 4 +  1 + 2 + 3 + 4 +  1 + 2 + 3 + 4 


G|--------------------------------|--------------------------------|
D|--------------------------------|--------------------------------|
A|--------------------------------|--------------------------------| x2
E|10--x-x-10--x-x-10--x-x-5-/-8---|10--x-x-10--x-x-10--x-x-5-/-8---|
  1   +   2   +   3   +   4   +    1   +   2   +   3   +   4   +    

G|--------------------------------|--------------------------------|
D|--------------------------------|--------------------------------|
A|--------------------------------|--------------------------------| x2
E|6---x-x-6---x-x-6---x-x-6---x-x-|6---x-x-6---x-x-6---x-x-6---4---|
  1   +   2   +   3   +   4   +    1   +   2   +   3   +   4   +  
  
G|--------------------------------|--------------------------------|
D|--------------------------------|--------------------------------|
A|--------------------------------|--------------------------------| x2
E|5---x-x-5---x-x-5---x-x-5---3---|5---x-x-5---x-x-5---x-x-5---3---|
  1   +   2   +   3   +   4   +    1   +   2   +   3   +   4   +   

G|--------------------------------|--------------------------------|
D(6)------------------------------|6-------------------------------|
A|----------------------------6---|----------------------------6---| x2
E|4---x-x-4---x-x-4---x-x-4-------|----x-x-4---x-x-4---x-x-4-------|
  1   +   2   +   3   +   4   +    1   +   2   +   3   +   4   +   


G|----------------|----------------|----------------|----------------|
D|----------------|----------------|----------------|----------------|
A|5---------------|5-----5---------|5---5-5---------|5-----5---------|
E|----------------|----------------|----------------|--------------1/|
  1 + 2 + 3 + 4 +  1 + 2 + 3 + 4 +  1 + 2 + 3 + 4 +  1 + 2 + 3 + 4 + 
 
G|----------------|----------------|----------------|----------------|
D|----------------|----------8-----|----------------|8-10----8-8---8-|
A|----------------|--------------8-|----------------|----8-----------|
E|6-----6---------|6-----6---------|6-----6---------|----------------|
  1 + 2 + 3 + 4 +  1 + 2 + 3 + 4 +  1 + 2 + 3 + 4 +  1 + 2 + 3 + 4 +  

G|----------------|------------9---|----------------|----------------|
D|7---------------|----------------|----------------|7h9-----7-7---7-|
A|----------------|----------7-----|----------------|------7---------|
E|------5---------|5-----5---------|5-----5---------|----------------|
  1 + 2 + 3 + 4 +  1 + 2 + 3 + 4 +  1 + 2 + 3 + 4 +  1 + 2 + 3 + 4 +  

G|----------------|----------------|----------------|----------------|
D|----------------|----------------|----------------|----------------|
A|----------------|----------------|----------------|----------------|
E|4-----4---------|4-----4---------|4-----4---------|4-----4---------|
  1 + 2 + 3 + 4 +  1 + 2 + 3 + 4 +  1 + 2 + 3 + 4 +  1 + 2 + 3 + 4


[Chorus] 3:33 - Half tempo feel starts

G|----------------|------------2---|------2---5-----|----------------|
D|----------------|----------------|------------5p3-|----------------|
A|5---------------|----------------|5---------------|5r--------------|
E|----------------|--------3/5-----|----------------|----------------|
  1 + 2 + 3 + 4 +  1 + 2 + 3 + 4 +  1 + 2 + 3 + 4 +  1 + 2 + 3 + 4 +  

G|----------------|----------------|----------------|----------------|
D|----------------|----------------|----------------|----------------|
A|3---------------|3---3-----------|3---------------|3---3-------/---|
E|----------------|------------3---|----------------|----------------|
  1 + 2 + 3 + 4 +  1 + 2 + 3 + 4 +  1 + 2 + 3 + 4 +  1 + 2 + 3 + 4 +  

G|----------------|----------------|----------------|----------------|
D|----------------|----------------|----------------|----------------|
A|5---------------|5---5-----------|5---------------|----------------|
E|----------------|--------3-5r----|----------------|----------------|
  1 + 2 + 3 + 4 +  1 + 2 + 3 + 4 +  1 + 2 + 3 + 4 +  1 + 2 + 3 + 4 +  

G|----------------|----------------|----------------|----------------|
D|----------------|----------------|----------------|----------------|
A|3---------------|3---3-----------|3---------------|3---3-------3---|
E|----------------|------------3---|----------------|----------------|
  1 + 2 + 3 + 4 +  1 + 2 + 3 + 4 +  1 + 2 + 3 + 4 +  1 + 2 + 3 + 4 + 
 
G|----------------|----------------|----------------|----------------|
D|----------------|----------------|----------------|----------------|
A|5---------------|5---5-----------|5---------------|3---------------|
E|----------------|------------5---|----------------|----------------|
  1 + 2 + 3 + 4 +  1 + 2 + 3 + 4 +  1 + 2 + 3 + 4 +  1 + 2 + 3 + 4 +  

G|----------------|----------------|----------------|----------------|
D|----------------|---------------/|8---------------|----------------|
A|----------------|----------------|----------------|----------------|
E|6---------------|6---6-----------|----------------|6---6-----------|
  1 + 2 + 3 + 4 +  1 + 2 + 3 + 4 +  1 + 2 + 3 + 4 +  1 + 2 + 3 + 4 +  

G|----------------|----10----------|----------------|----------------|
D|----------------|------8---------|----------------|----------------|
A|----------------|--------8-------|----------------|----------------|
E|6---------------|----------6r----|6---------------|6-8r------------|
  1 + 2 + 3 + 4 +  1 + 2 + 3 + 4 +  1 + 2 + 3 + 4 +  1 + 2 + 3 + 4 +  

G|----------------|----------------|----------------|----------------|
D|----------------|----------------|----------------|----------------|
A|8---------------|8---8-----------|6---------------|6---6-----------| x2
E|----------------|----------------|----------------|----------------|
  1 + 2 + 3 + 4 +  1 + 2 + 3 + 4 +  1 + 2 + 3 + 4 +  1 + 2 + 3 + 4 + 
 

[Instrumental] 4:46

G|----------------|----------------|------------9---|----------------|
D|----------------|----------------|----------------|----------------|
A|5---------------|----------------|5---------------|----------------| x4
E|----------------|----------------|----------------|----------------|
  1 + 2 + 3 + 4 +  1 + 2 + 3 + 4 +  1 + 2 + 3 + 4 +  1 + 2 + 3 + 4 +  


G|----------------|----------------|----------------|----------------|
D|----------------|----------------|--------------8-|--------6h8r----|
A|----------------|----------------|----------------|----------------|
E|6-----------6---|----------------|6---------------|----------------|
  1 + 2 + 3 + 4 +  1 + 2 + 3 + 4 +  1 + 2 + 3 + 4 +  1 + 2 + 3 + 4 +  

G|----------------|----------------|----------------|----------------|
D|7---------------|--------7-------|7---------------|----------------|
A|------------7---|----------7r----|------------8---|--------7-------|
E|----------------|----------------|----------------|----------------|
  1 + 2 + 3 + 4 +  1 + 2 + 3 + 4 +  1 + 2 + 3 + 4 +  1 + 2 + 3 + 4 +  

G|--------7---9---|----------------|--------7---9---|----------------|
D|----------------|----------------|----7-----------|----------------|
A|5---------------|----------------|5---------------|----------------|
E|----------------|----------------|----------------|--------3h5---3-|
  1 + 2 + 3 + 4 +  1 + 2 + 3 + 4 +  1 + 2 + 3 + 4 +  1 + 2 + 3 + 4 + 
 
G|--------7---9---|--------7h9-----|--------7---9---|----------------|
D|----7-----------|----------------|----7-----------|----------------|
A|5---------------|----------------|5---------------|------------3h4-|
E|----------------|----------------|----------------|--------3h5-----|
  1 + 2 + 3 + 4 +  1 + 2 + 3 + 4 +  1 + 2 + 3 + 4 +  1 + 2 + 3 + 4 + 
 
G|--------7---9---|--------7h9-----|--------7---9---|--------7h9-----|
D|----7-----------|----------------|----7-----------|------------5h7-|
A|5---------------|----------------|5---------------|----------------|
E|----------------|----------------|----------------|----------------|
  1 + 2 + 3 + 4 +  1 + 2 + 3 + 4 +  1 + 2 + 3 + 4 +  1 + 2 + 3 + 4 +  
 
G|--------7---9---|--------7h9-----|--------7---9---|----------------|
D|----7-----------|----------------|----7-----------|----------------|
A|5---------------|----------------|5---------------|----------------|
E|----------------|----------------|----------------|--------15\-----|
  1 + 2 + 3 + 4 +  1 + 2 + 3 + 4 +  1 + 2 + 3 + 4 +  1 + 2 + 3 + 4 + 


G|----------------|----------------|----------------|----------------|
D|----------------|----------------|------------8---|----------------|
A|----------------|----------------|----------------|----------------|
E|6-----------6---|----------------|6---------------|----------------|
  1 + 2 + 3 + 4 +  1 + 2 + 3 + 4 +  1 + 2 + 3 + 4 +  1 + 2 + 3 + 4 + 
 
G|----------------|----------------|----------------|----------------|
D|----------------|----------------|----------------|--------5-3-5---|
A|----------------|----------------|----------------|----------------|
E|6-----------8---|----------------|6-----------8---|----------------|
  1 + 2 + 3 + 4 +  1 + 2 + 3 + 4 +  1 + 2 + 3 + 4 +  1 + 2 + 3 + 4 +  


G|--------7---9---|--------7h9-----|--------7---9---|----------------|
D|----7-----------|------------5h7-|----7-----------|----------------|
A|5---------------|----------------|5---------------|------------3h4-|
E|----------------|----------------|----------------|--------3h5-----|
  1 + 2 + 3 + 4 +  1 + 2 + 3 + 4 +  1 + 2 + 3 + 4 +  1 + 2 + 3 + 4 + 

G|--------7---9---|--------7h9-----|--------7---9---|----------9\----|
D|----7-----------|------------5h7-|----7-----------|----------------|
A|5---------------|----------------|5---------------|----------------|
E|----------------|----------------|----------------|----------------|
  1 + 2 + 3 + 4 +  1 + 2 + 3 + 4 +  1 + 2 + 3 + 4 +  1 + 2 + 3 + 4 + 


G|----------------|----------------|----------------|----------------|
D|----------------|--------8-------|------------8---|----------8-\---|
A|----------------|----------8---8-|----------------|----------------|
E|6-----------6---|----------------|6---------------|----------------|
  1 + 2 + 3 + 4 +  1 + 2 + 3 + 4 +  1 + 2 + 3 + 4 +  1 + 2 + 3 + 4 + 
 
G|----------------|----------------|----------------|----------------|
D|----------------|--------7-------|7---------------|----------------|
A|----------------|----------7-----|------------8---|--------7-------|
E|5-----------5---|------------5---|----------------|----------------|
  1 + 2 + 3 + 4 +  1 + 2 + 3 + 4 +  1 + 2 + 3 + 4 +  1 + 2 + 3 + 4 +  


[Bridge] 6:45

G|----------------|----------------|--------7---9---|--------7h9-----|
D|----------------|----------------|----7-----------|----------------|
A|5-----x-5-----x-|5-----x-5-----x-|5---------------|----------------|
E|----------------|----------------|----------------|----------------|
  1 + 2 + 3 + 4 +  1 + 2 + 3 + 4 +  1 + 2 + 3 + 4 +  1 + 2 + 3 + 4 + 
 
G|------------9---|----------------|--------7---9---|--------7h9-----|
D|----------------|----------------|----7-----------|------------5h7-|
A|5---------------|----------------|5---------------|----------------|
E|----------------|----------------|----------------|----------------|
  1 + 2 + 3 + 4 +  1 + 2 + 3 + 4 +  1 + 2 + 3 + 4 +  1 + 2 + 3 + 4 +  

G|--------7---9---|----------------|----------------|----------------|
D|----7-----------|--------7-5-----|----------------|----------------|
A|5---------------|--------------8-|5-----x-5-----x-|5-----x-5-----x-|
E|----------------|----------------|----------------|----------------|
  1 + 2 + 3 + 4 +  1 + 2 + 3 + 4 +  1 + 2 + 3 + 4 +  1 + 2 + 3 + 4 + 
 
G|--------7---9---|----------------|----------------|----------------|
D|----7-----------|----------------|----------------|----------------|
A|5---------------|----------------|5-------5-------|5-------5-------|
E|----------------|----------------|----------------|----------------|
  1 + 2 + 3 + 4 +  1 + 2 + 3 + 4 +  1 + 2 + 3 + 4 +  1 + 2 + 3 + 4 + 


G|----------------|----------------|----------------|----------------|
D|----------------|----------------|----------------|----------------|
A|----------------|----------------|----------------|----------------|
E|6---------------|----------------|----------------|--------6-6-6---|
  1 + 2 + 3 + 4 +  1 + 2 + 3 + 4 +  1 + 2 + 3 + 4 +  1 + 2 + 3 + 4 + 
 
G|----------------|----------------|----------------|----------------|
D|----------------|--------7-------|7---------------|----------------|
A|----------------|----------7-----|------------8---|--------7-------|
E|5-----------5---|------------5---|----------------|----------------|
  1 + 2 + 3 + 4 +  1 + 2 + 3 + 4 +  1 + 2 + 3 + 4 +  1 + 2 + 3 + 4 + 

 
G|----------------|----------------|----------------|----------------|
D|----------------|----------------|----------------|----------------|
A|5-----x-5-----x-|5-----x-5-----x-|5-----x-5-----x-|5-----x-5-----x-|
E|----------------|----------------|----------------|----------------|
  1 + 2 + 3 + 4 +  1 + 2 + 3 + 4 +  1 + 2 + 3 + 4 +  1 + 2 + 3 + 4 +  

G|--------7---9---|--------7h9-----|--------7---9---|----------------|
D|----7-----------|----------------|----7-----------|----------------|
A|5---------------|----------------|5---------------|----------------|
E|----------------|----------------|----------------|----------------|
  1 + 2 + 3 + 4 +  1 + 2 + 3 + 4 +  1 + 2 + 3 + 4 +  1 + 2 + 3 + 4 + 
 

G|----------------|----------------|----------------|----------------|
D|----------------|----------------|----------------|----------------|
A|----------------|----------------|----------------|----------------|
E|6-----------6---|----------------|6---------6-----|----------------|
  1 + 2 + 3 + 4 +  1 + 2 + 3 + 4 +  1 + 2 + 3 + 4 +  1 + 2 + 3 + 4 + 

G|----------------|----------------|----------------|----------------|
D|----------------|--------7-------|7---------------|----------------|
A|----------------|----------7r----|------------8---|--------7-------|
E|5-----------5---|----------------|----------------|----------------|
  1 + 2 + 3 + 4 +  1 + 2 + 3 + 4 +  1 + 2 + 3 + 4 +  1 + 2 + 3 + 4 + 

G|----------------|----------------|
D|----------------|----------------|
A|5---------------|----------------| "Stone, stone, stone, stone, stone, stone, stone,..."
E|----------------|----------------|
  1 + 2 + 3 + 4 +  1 + 2 + 3 + 4 +  
 - End of half tempo feel


Ouh, stop the autoscroller here and take a break. You have time to drink a coffee (maybe even two).
Just listen to the music and relax. Travel trough your dreams. Let me tell you about...
Ok let's just stop there.

Also, you might wanna change your tuning to Drop D to play the very last note of the song. Purely 
optional, the tab will stay in the same tuning.


[Verse] 12:35
 
G|----------------|----------------|----------------|----------------|
D|----------------|----------------|----------------|----------------|
A|----------------|----------------|----------------|----------------|
E|5---------------|----------------|5---------------|----------------|
  1 + 2 + 3 + 4 +  1 + 2 + 3 + 4 +  1 + 2 + 3 + 4 +  1 + 2 + 3 + 4 +  

G|----------------|----------------|----------------|----------------|
D|----------------|----------------|----------------|----------------|
A|----------------|----------------|----------------|----------------|
E|4---------------|----------------|4---------------|----------------|
  1 + 2 + 3 + 4 +  1 + 2 + 3 + 4 +  1 + 2 + 3 + 4 +  1 + 2 + 3 + 4 + 
 
G|----------------|----------------|----------------|----------------|
D|--------------7-|----------------|--------------7-|----------------|
A|5-----5---------|5-----5---------|5-----5---------|5-----5---------|
E|----------------|--------------5-|----------------|--------------1/|
  1 + 2 + 3 + 4 +  1 + 2 + 3 + 4 +  1 + 2 + 3 + 4 +  1 + 2 + 3 + 4 +  

G|----------------|----------------|----------------|----------------|
D|----------------|----------8-----|----------------|8---10--------8-|
A|----------------|--------------8-|----------------|--------8-------|
E|6-----6---------|6-----6---------|6-----6---------|----------------|
  1 + 2 + 3 + 4 +  1 + 2 + 3 + 4 +  1 + 2 + 3 + 4 +  1 + 2 + 3 + 4 + 
 
G|----------------|----------------|----------------|----------------|
D|7---------------|----------7-----|7---------------|----------------|
A|----------------|--------------7-|----------------|----------7-----|
E|------5---------|5-----5---------|-----5----------|5-----5-------5-|
  1 + 2 + 3 + 4 +  1 + 2 + 3 + 4 +  1 + 2 + 3 + 4 +  1 + 2 + 3 + 4 +  

G|----------------|----------------|----------------|----------------|
D|----------------|----------6-----|----------------|88-66---------6-|
A|----------------|--------------6-|----------------|------6---6-6---|
E|4-----4---------|4-----4---------|4-----4---------|----------------|
  1 + 2 + 3 + 4 +  1 + 2 + 3 + 4 +  1 + 2 + 3 + 4 +  1 + 2 + 3 + 4 + 
 
G|--------------------------------|--------------------------------|
D|--------------------------------|--------------------------------|
A|5---x-x-5---x-x-5---x-x-5---3---|5---x-x-5---x-x-5---x-x-5---3---| x2
E|--------------------------------|--------------------------------|
  1   +   2   +   3   +   4   +    1   +   2   +   3   +   4   +    

G|--------------------------------|--------------------------------|
D|--------------------------------|--------------------------------|
A|--------------------------------|--------------------------------| x2
E|6---x-x-6---x-x-6---x-x-6---x-x-|6---x-x-6---x-x-6---x-x-6---4---|
  1   +   2   +   3   +   4   +    1   +   2   +   3   +   4   +  
  
G|--------------------------------|--------------------------------|
D|--------------------------------|--------------------------------|
A|--------------------------------|--------------------------------| x2
E|5---x-x-5---x-x-5---x-x-5---3---|5---x-x-5---x-x-5---x-x-5---3---|
  1   +   2   +   3   +   4   +    1   +   2   +   3   +   4   +   

G|--------------------------------|--------------------------------|
D|--------------------------------|--------------------------------|
A|--------------------------------|--------------------------------| x2
E|4---x-x-4---x-x-4---x-x-4---x-x-|4---x-x-4---x-x-4---x-x-4---x-x-|
  1   +   2   +   3   +   4   +    1   +   2   +   3   +   4   +   


[Chorus] 14:02 - Half tempo feel starts (again)

G|----------------|----------------|----------------|----------------|
D|----------------|----------------|----------------|----------------|
A|5---------------|------------3---|5---------------|5r--------------|
E|----------------|--------3/5-----|----------------|----------------|
  1 + 2 + 3 + 4 +  1 + 2 + 3 + 4 +  1 + 2 + 3 + 4 +  1 + 2 + 3 + 4 +  

G|----------------|----------------|----------------|----------------|
D|----------------|----------------|----------------|----------------|
A|3---------------|3---3-----------|3---------------|3---3-------/---|
E|----------------|------------3---|----------------|----------------|
  1 + 2 + 3 + 4 +  1 + 2 + 3 + 4 +  1 + 2 + 3 + 4 +  1 + 2 + 3 + 4 +  

G|----------------|----------------|----------------|----------------|
D|----------------|----------------|----------------|----------------|
A|5---------------|5---5-----------|5---------------|----------------|
E|----------------|--------3-5r----|----------------|----------------|
  1 + 2 + 3 + 4 +  1 + 2 + 3 + 4 +  1 + 2 + 3 + 4 +  1 + 2 + 3 + 4 +  

G|----------------|----------------|----------------|----------------|
D|----------------|----------------|----------------|----------------|
A|3---------------|3---3-----------|3---------------|3---3-------3---|
E|----------------|------------3---|----------------|----------------|
  1 + 2 + 3 + 4 +  1 + 2 + 3 + 4 +  1 + 2 + 3 + 4 +  1 + 2 + 3 + 4 + 
 
G|----------------|----------------|----------------|----------------|
D|----------------|----------------|----------------|----------------|
A|5---------------|5---5-----------|5---------------|3---------------|
E|----------------|------------5---|----------------|----------------|
  1 + 2 + 3 + 4 +  1 + 2 + 3 + 4 +  1 + 2 + 3 + 4 +  1 + 2 + 3 + 4 +  

G|----------------|----------------|----------------|----------------|
D|----------------|---------------/|8---------------|----------------|
A|----------------|----------------|----------------|----------------|
E|6---------------|6---6-----------|----------------|6---6-----------|
  1 + 2 + 3 + 4 +  1 + 2 + 3 + 4 +  1 + 2 + 3 + 4 +  1 + 2 + 3 + 4 +  

G|----------------|----10----------|----------------|----------------|
D|----------------|------8---------|----------------|----------------|
A|----------------|--------8-------|----------------|----------------|
E|6---------------|----------6r----|6---------------|6-8r------------|
  1 + 2 + 3 + 4 +  1 + 2 + 3 + 4 +  1 + 2 + 3 + 4 +  1 + 2 + 3 + 4 +  

G|----------------|----------------|----------------|----------------|
D|----------------|----------------|----------------|----------------|
A|8---------------|8---8-----------|6---------------|6---6-----------| x2
E|----------------|----------------|----------------|----------------|
  1 + 2 + 3 + 4 +  1 + 2 + 3 + 4 +  1 + 2 + 3 + 4 +  1 + 2 + 3 + 4 + 


[Outro] 15:14 
 
G|----------------|----------------|----------------|----------------|
D|----------------|----------------|----------------|----------------|
A|5---------------|----------------|----------------|--------5-7-----|
E|----------------|----------------|----------------|----------------|
  1 + 2 + 3 + 4 +  1 + 2 + 3 + 4 +  1 + 2 + 3 + 4 +  1 + 2 + 3 + 4 +  
 
G|----------------|----------------|----------------|----------------|
D|----------------|----------------|----------------|----------------|
A|8-----------7---|--------5---3---|5-----------3---|--------5-7-----| x11
E|----------------|----------------|----------------|----------------|
  1 + 2 + 3 + 4 +  1 + 2 + 3 + 4 +  1 + 2 + 3 + 4 +  1 + 2 + 3 + 4 +  
 
G|----------------|----------------|----------------|----------------|
D|----------------|----------------|----------------|----------------|
A|8-----------7---|--------5---3---|----------------|--------8-------|
E|----------------|----------------|6-----------6---|----------6r----|
  1 + 2 + 3 + 4 +  1 + 2 + 3 + 4 +  1 + 2 + 3 + 4 +  1 + 2 + 3 + 4 +  
 
G|----------------|----------------|----------------|----------------|
D|----------------|----------------|----------------|--------7-------|
A|----------------|--------8-------|----------------|----------7r----|
E|6-----------6---|----------6-----|5-----------5---|----------------|
  1 + 2 + 3 + 4 +  1 + 2 + 3 + 4 +  1 + 2 + 3 + 4 +  1 + 2 + 3 + 4 +  
 
G|----------------|----------------|----------------|----------------|
D|7---------------|----------------|--------------0*|----------------|
A|------------8---|------------7---|5---------------|----------------|
E|----------------|----------------|----------------|----------------|
  1 + 2 + 3 + 4 +  1 + 2 + 3 + 4 +  1 + 2 + 3 + 4 +  1 + 2 + 3 + 4 +  
 
G|----------------|----------------|----------------|----------------||
D|----------------|----------------|----------------|----------------||
A|----------------|----------------|----------------|----------------||
E|----------------|----------------|----------------|----------------||
  1 + 2 + 3 + 4 +  1 + 2 + 3 + 4 +  1 + 2 + 3 + 4 +  1 + 2 + 3 + 4 +  

*An octave lower in the song. To play like so, change your tuning at the begging of the song
or in the middle section as I mentioned it.

Here it is !
I wanted to do a complete writing of the song. Even if the previous version got the notes right, 
it was very incomplete. So here it is, good job if you made it until here, leave a rating if you 
enjoyed, and don't hesitate to correct it if you see important mistakes, tabs that are this long 
might have some.


************************************

| x   Dead note
| (n) Ghost note
| h   Hammer-on
| p   Pull-off
| r   Release
| /   Slide up
| \   Slide down

************************************

            
            
Suggest correction
Creating personal tab
Creating personal tab
You can edit any tab online and save it as your Personal.

You can edit, replace or remove any tab part or add personal notes – all changes will be seen only by you.

Personal tabs can be accessed anytime from any device, even offline.
Learn more »
comments
print report bad tab
2 comments total.
0 reply
dale2022 52 Mar 17, 2017 06:54 PM

melody is accurate, a few riffs are slightly off but if you have some experience it shouldnt be too hard to figure out. good tab

0 reply
Nekub 1,375 Mar 18, 2017 05:37 AM

Hey there ! Thanks for you rating & commenting. I listened to the song again when I saw your comment, I corrected the middle section's riff by placing a D instead of A F, and it seems more like it. If you have any other improvement advice, I'm taking them !

guest
You may want to rate the tab now too:
select rating
Wanna post a correction for this tab? Suggest correction