Oops, an error
Loading. Please wait.

Fat Old Sun tab

version 2
version 2

Whole song

  • The chords playing under the solo have been includ... Show more

Interactive

787 views 1 this week
1 commentread comment
1 2 3 4 5
1 last vote to show rating
add to favorites
×
Save as Personal and add changes to this tab that will be seen only by you. Learn more ›
×
You can save this tab as Personal to edit and correct it or add notes. All changes will be seen only by you. Learn more »
launch autoscroll
font size
0
reset
how to read this tab
guitar tuner
edit
Autoscroll
slow
fast
+/-
esc
set tempo
stop
Author
Difficulty
About this tab version
The chords playing under the solo have been included, also the solo improved slightly. Was this info helpful? Yes No
#----------------------------------PLEASE NOTE--------------------------------#
#This file is the author's own work and represents their interpretation of the#
#song. You may only use this file for private study, scholarship, or research.#
#-----------------------------------------------------------------------------#

Title:    Fat Old Sun
Artist:   Pink Floyd
Album:    Atom Heart Mother (1970)
Key:      G major
Comments: 72 bpm


INTRO

| G             |

VERSE 1

         G                    D
When that fat old sun in the sky is falling
F                 C                 G
   Summer evening birds are calling
G                 D
Summer's thunder time of year
    F              C            G
The sound of music in my ears
G              D                     F          C
Distant bells, new mown grass smells so sweet
G            D               F             C            G
By the river holding hands, roll me up and lay me down

CHORUS

           C          Bm
And if you sit, don't make a sound
Am7                  G
   Pick your feet up off the ground
           C           Bm
And if you hear as the warm night falls
Am7                        Dm
   The silver sound from a time so strange
Gm          Dm
Sing to me, sing to me

| F             | F     D       |

VERSE 2

         G                   D
When that fat old sun in the sky is falling
F                 C                     G
   Summer evening birds are calling
G                   D
Children's laughter in my ears
    F             C             G
The last sunlight disappears
 
CHORUS

           C          Bm
And if you sit, don't make a sound
Am7                  G
   Pick your feet up off the ground
           C           Bm
And if you hear as the warm night falls
Am7                        Dm
   The silver sound from a time so strange
Gm          Dm
Sing to me, sing to me

| F             | F     D       |

When that fat old sun...

SOLO

    G                   D                   F
e|--------------------|-------------------|------------------------------|
B|--------------------|-------------------|------------------------------|
G|--------------------|-------------------|------------------10----10----|
D|--------------------|-----------7-7-7h9-|---------------10-10h12 10h12-|
A|-------------5--5h7-|-5--7--7/9---------|-8~--10--10/12----------------|
E|--3---5-5h7---------|-------------------|------------------------------|

   C                                        G
e|----------------------------------------|-------------------------------|
B|----------------------------------------|-------------------------------|
G|------------12----12h14p12—-------------|-------------------------------|
D|-10---12/14----14----------14--12-------|-------------------12-12-12h14-|
A|----------------------------------14-12-|-10h12-10—12-12/14-------------|
E|----------------------------------------|-------------------------------|

   D                         F                  C
e|--------------------------|-----------------|-------------------------|
B|--------------------------|-----------------|-------------------------|
G|--------------14-14-14h16-|-----------------|-------------------------|
D|-12—-14-14/16-------------|15~-14\-10-10h12-|-10h12-10--5/7-5---------|
A|--------------------------|-----------------|-----------------7-5-----|
E|--------------------------|-----------------|---------------------7\--|

   G                       D                            F
e|-----------------------|----------------------------|--------------------------|
B|-----------------------|----------------------------|--------------------------|
G|-----------------------|----------------------------|--------10----10----10----|
D|-----------------------|-------7h9-9b(10)r9-7---7-9-|-10--10-10h12-10h12-10h12-|
A|------------5--5h7-5h7—|-5—7/9----------------9-----|--------------------------|
E|-/3---5-5h7------------|----------------------------|--------------------------|

   C                                  G                D
e|----------------------------------|----------------|-----------------------|
B|----------------------------------|----------------|-----------------------|
G|---------10-10--10----------------|----------------|-----------------------|
D|-12b(13)-10-10--10h12--10-----5---|----------------|-----------------------|
A|-----------------------10h12--5h7-|-5-x-5--5\3-3\2-|-0—0h2-0h2-2b(3)-0-0-2-|
E|----------------------------------|----------------|-----------------------|
 
   F                                 C
e|---------------------------------|-----------------------------|
B|---------------------------------|-----------------------------|
G|---------------------10----10----|--------------12----12-14-14-|
D|---------------------10h12-10h12-|-12-10--12/14----14----------|
A|--------0-8h10-10/12-------------|-----------------------------|
E|-1—3/5---------------------------|-----------------------------|

   G                                      D
e|---------------------------------------|---------------------------------------|
B|---------------------------------------|---------------------------------------|
G|-12h14-12-14b(16)--(16)r14-12-14-12-14-|14b(16)-14-14—14b(16)r14b(16)r14-12-14-|
D|---------------------------------------|---------------------------------------|
A|---------------------------------------|---------------------------------------|
E|---------------------------------------|---------------------------------------|

   F                                  C
e|----------------------------------|---------------------------|
B|----------------------------------|---------------------------|
G|-14b(17)-14-14—--14b(16)r14-14-14-|-14p12-12-12---7/9-9-9p7-7-|
D|----------------------------------|---------------------------|
A|----------------------------------|---------------------------|
E|----------------------------------|---------------------------|

   G                             D
e|-----------------------------|------------------------------|
B|-----------------------------|------------------------------|
G|-7h9-7---7h9-----------------|-----------7---7-9-9(11)-9-7\-|
D|-------------9\7-5-7-5-------|-------7-9---9----------------|
A|-----------------------7-5-7-|-5-7/9------------------------|
E|-----------------------------|------------------------------|
   F                       C
e|-----------------------|-------------------------|
B|-----------------------|-------------------------|
G|-----------------------|-------------------------|
D|-6h7--6--7---7p6-7p6-7—|-3/5-5-3p2-2-------------|
A|-----------------------|--------------3—3h5-3h5--|
E|-----------------------|-------------------------|
   G                      D
e|----------------------|-------------------------------|
B|----------------------|-------------------------------|
G|----5p4-4-------------|---------7-9-9b(11)r9-7~--7h9--|
D|----------5---5---5---|-----7h9-----------------------|
A|-5----------5-5h7-5h7-|-7/9---------------------------|
E|----------------------|-------------------------------|

   F                              C
e|------------------------------|----------------------------|
B|------------------------------|----------------------------|
G|-9b(10)-9b(10)--9b(10)—9b(10)—|-pb(10)r9---5------7---5h7--|
D|------------------------------|-------------5—5h7---5------|
A|------------------------------|----------------------------|
E|------------------------------|----------------------------|

   G                       D
e|-----------------------|---------------|
B|-----------------------|---------------|
G|-7~--7~-5p4------------|---------------|
D|------------5-5—-5/(7)-|-7—5p4\0-------|
A|-----------------------|---------5-5h7-|
E|-----------------------|---------------|
 
   F                          C
e|--------------------------|----------------------|
B|--------------------------|-5h6-5h6-5/-----------|
G|-----------10h---10h---10-|-5h7-5h7-5/-----------|
D|-----------10h12-10h12-10-|-------------9b(10)r9-|
A|-7/8--8/12----------------|----------------------|
E|--------------------------|----------------------|
   G                       D
e|-----------------------|-----15-15-15-17-19-|
B|-----18-18-18-18-18-18-|-15-----------------|
G|-----------------------|--------------------|
D|-----------------------|--------------------|
A|-10--------------------|--------------------|
E|-----------------------|--------------------|
   F                       C
e|-19b(20)---------------|----------------|
B|-----------------------|----------------|
G|-----------------------|-10-9-10p9------|
D|--------------------10-|----------10----|
A|----------8-8-10/12----|-------------10-|
E|-----------------------|----------------|


Chords

Am7             x02010
Bm              x24432
C               x32010
D               xx0232
Dm              xx0231
F               133211
G               320003
Gm              355333

            
            
Suggest correction
Creating personal tab
Creating personal tab
You can edit any tab online and save it as your Personal.

You can edit, replace or remove any tab part or add personal notes – all changes will be seen only by you.

Personal tabs can be accessed anytime from any device, even offline.
Learn more »
Give kudos to tab author, rate the tab!
1 2 3 4 5
comments
print report bad tab
1 comment total.
0 reply
frankentosh 10 Apr 22, 2017 09:53 PM

I'm looking for the live in Gdansk solo, this tab is amazing but the live solo isn't tabbed yet. and you nailed this version man!

guest
You may want to rate the tab now too:
select rating
Wanna post a correction for this tab? Suggest correction