Oops, an error
Loading. Please wait.
We have an official Hey You tab made by UG professional guitarists. Check out the tab »
×
312,482 views 474 this week
11 commentsread comments
1 2 3 4 5
x 202
add to favorites
×
Save as Personal and add changes to this tab that will be seen only by you. Learn more ›
×
You can save this tab as Personal to edit and correct it or add notes. All changes will be seen only by you. Learn more »
launch autoscroll
font size
0
reset
how to read this tab
guitar tuner
backing track
0:00
0:00
edit
Autoscroll
slow
fast
+/-
esc
set tempo
stop
Author
Difficulty
intermediate
                                 *Hey You*
                                  The Wall
                                 Pink Floyd

[Intro]

e|-2-----3-----3----2-----3-----3---|-------5-----5----------5-----5---|
B|-----5---5-----5------5---5-----5-|-5-------6-----6--5-------6-----6-|
G|---4-------4--------4-------4-----|-----7-----7----------7-----7-----|
D|----------------------------------|---7----------------7-------------|
A|----------------------------------|----------------------------------|
E|----------------------------------|----------------------------------|

                       or you can do it this way

e|----------------------------------|-------5-----5----------5-----5---|
B|-7-----8-----8----7-----8-----8---|-5-------6-----6--5-------6-----6-|
G|-----9---9-----9------9---9-----9-|-----7-----7----------7-----7-----|
D|---9-------9--------9-------9-----|---7----------------7-------------|
A|----------------------------------|----------------------------------|
E|----------------------------------|----------------------------------|

            
            
Suggest correction
Creating personal tab
Creating personal tab
You can edit any tab online and save it as your Personal.

You can edit, replace or remove any tab part or add personal notes – all changes will be seen only by you.

Personal tabs can be accessed anytime from any device, even offline.
Learn more »
comments
print report bad tab
11 comments total. Showing first comments.
-1 reply
Maitinin 19,543 Apr 04, 2006 10:15 AM

it sounds quite correct, but the chords and harmonies are all correct, but there's stille some mistakes with the wrong notes

+7 reply
lynyrd01skynyrd 10 Sep 03, 2007 12:22 PM

the real way is this with a capo on the 3rd fret

E|-------0------0---|
B|-4----------------|
G|-----6----6-----6-|
D|---6--------6-----|
A|------------------|
E|------------------|

and then it goes to
E|--------2------2--|
B|--2-------3-------|
G|------4-----4----4|
D|----4-------------|
A|------------------|
E|------------------|

+15 reply
Jumboshrmp 30 Feb 12, 2008 01:11 PM

I'm playing this in standard with no capo, and the first part of the riff makes sense, but the second part doesn't make much sense from a guitarist's point of view.
Yes, the chord is D minor, but it makes more sense to use the open D minor instead of the barre form, to make switching easier that fast.
Here's how I'd play it:

|-2-----3-----3----2-----3-----3---|-0-----1-----1----0-----1-----1---|
|-----5---5-----5------5---5-----5-|-----3---3-----3------3---3-----3-|
|---4-------4--------4-------4-----|---2-------2--------2-------2-----|
|----------------------------------|----------------------------------|
|----------------------------------|----------------------------------|
|----------------------------------|----------------------------------|
This may or may not be the "correct" way to play it, but it is much more economical.

guest
You may want to rate the tab now too:
select rating
Wanna post a correction for this tab? Suggest correction