Oops, an error
Loading. Please wait.

High Hopes bass

version 1
version 1

Whole song

20,592 views 51 this week
5 commentsread comments
1 2 3 4 5
x 7
add to favorites
×
Save as Personal and add changes to this tab that will be seen only by you. Learn more ›
×
You can save this tab as Personal to edit and correct it or add notes. All changes will be seen only by you. Learn more »
launch autoscroll
font size
0
reset
guitar tuner
backing track
0:00
0:00
edit
Autoscroll
slow
fast
+/-
esc
set tempo
stop
Tuning: Standard

[Intro] (0:48)
G|---------------------------------------------------------------|
D|---------------------------------------------------------------|
A|---------------------------------------------------------------|
E|---3/8-------8------3/8-------8--------------------------------|

[Chorus] "But Along The Long Road..."
G|---------------------------------------------------------------|
D|---------------------------------------------------------------|
A|-3--3------------2----3---3------------------------------------|
E|-----4----3---3------------4---3---3-3-------------------------|

[Verse]
G|---------------------------------------------------------------|
D|---------------------------------------------------------------|
A|---------------------------------------------------------------|
E|---3/8-------8------3/8-------8--------------------------------|

[Chorus] "The Grass Was Greener..."
G|----------------------------------------------------------------|
D|----------------------------------------------------------------|
A|--3--3-------------3--5-6---------------------------------------|
E|------3--3-4--4-6------------1--3-4-----------------------------|(x2)

[Verse]
G|---------------------------------------------------------------|
D|---------------------------------------------------------------|
A|---------------------------------------------------------------|
E|---3/8-------8------3/8-------8--------------------------------|

[Chorus] "But A Higher Altitude..."
G|---------------------------------------------------------------|
D|---------------------------------------------------------------|
A|-3--3------------2----3---3------------------------------------|
E|-----4----3---3------------4---3---3-3-------------------------|

[Bridge]
G|-----------------------------------------------|
D|-----------------------------------------------|
A|-----------------------------------------------|
E|--0-----------------/12---1--------------------|

G|------------------------------------------------|
D|------------------------------------------------|
A|------------------------------------------------|
E|-/12----------12----------1-----1-----1-----1---|

G|------------------------------------------------|
D|------------------------------------------------|
A|------------------------------------------------|
E|--0-----0-----0-----0-----1-----1-----1-----1---|

G|-------------------------------------------------|
D|-------------------------------------------------|
A|-------------------------------------------------|
E|--0-----0-----0-----0-----1-----1-----1---3/8----|

[Verse]
G|---------------------------------------------------------------|
D|---------------------------------------------------------------|
A|---------------------------------------------------------------|
E|---3/8-------8------3/8-------8--------------------------------|

[Chorus] The Grass Was Greener
G|----------------------------------------------------------------|
D|----------------------------------------------------------------|
A|--3--3-------------3--5-6---------------------------------------| repeat until the end
E|------3--3-4--4-6------------1--3-4-----------------------------|

Corrections by Nekub (06/03/2017)

************************************

| /  Slide up

************************************

            
            
Suggest correction
Creating personal tab
Creating personal tab
You can edit any tab online and save it as your Personal.

You can edit, replace or remove any tab part or add personal notes – all changes will be seen only by you.

Personal tabs can be accessed anytime from any device, even offline.
Learn more »
comments
print report bad tab
5 comments total. Showing first comments.
+3 reply
BCarey2293 131 May 16, 2009 11:42 AM

Some obvious wrong notes. Easy to hear which notes are wrong and easy to fix but it should be looked over.

-1 reply
R8:31b 1,731 May 19, 2009 02:54 PM

well, then you tab it out...

0 reply
meyo 10 May 25, 2009 10:37 PM

i thought it was great

guest
You may want to rate the tab now too:
select rating
Wanna post a correction for this tab? Suggest correction