Oops, an error
Loading. Please wait.

High Hopes chords

version 4
version 4

Whole song

3,862 views 66 this week
1 commentread comment
1 2 3 4 5
x 9
add to favorites
×
Save as Personal and add changes to this tab that will be seen only by you. Learn more ›
×
You can save this tab as Personal to edit and correct it or add notes. All changes will be seen only by you. Learn more »
launch autoscroll
font size
0
reset
transpose
0
reset
simplify chords
display chords
guitar tuner
backing track
0:00
0:00
edit
Autoscroll
slow
fast
+/-
esc
set tempo
stop
Strumming
There is no strumming pattern for this song yet. and get +5 IQ
I put a capo on the 3th fret on the 012jacob012 version and I think it sound fine.

#CAPO 3#

[Piano intro]

E---0--0---3--3-------------------------------------------------|
B----------1--1-------------------------------------------------|
G---2--2----------2--2------------------------------------------|
D-----------------3--3------------------------------------------|
A-----------------------0---------------------------------------|
E---------------------------------------------------------------|

Repeat untill verse

[Verse 1]

Am            Am7           F                              
   Beyond the horizon of the place we lived when we were young
Am              Am7                 F
   In a world of magnets and miracles
Am                      Am7              F
   Our thoughts strayed constantly and without boundary
Am                   Am7                 F
   The ringing of the division bell had begun

F                       E       
   Along the long road and on down the causeway
F                  E
   Do they still meet there by the cut

[Verse 2]

Am                   Am7                 F
   There was a ragged band who followed in our footsteps
Am                   Am7                 F
   Running before times took our dreams away
Am                   Am7                 F
   Leaving the myriad small creatures trying to tie us to the ground
Am                   Am7                 F
   To a life consumed by slow decay


[Chorus 1]

F                 Am    Em   F   G
   The grass was greener
                 Am   C   Dm   F
The light was brighter
                 Am   Em   F   G
When friends surrounded
                 Am    C   Dm
The nights of wonder


[Verse 3]

Am                   Am7                 F
   Looking beyond the embers of bridges glowing behind us
Am                   Am7                 F 
   To a glimpse of how green it was on the other side
Am                   Am7                 F
   Steps taken forwards but sleepwalking back again
Am                   Am7               F
   Dragged by the force of some inner tide

F                   E      
   At a higher altitude with flag unfurled
F                     E    
   We reached the dizzy heights of that dreamed of world


[Solo]

E---------------------------------------------------------------------------|
B---------------------------------------------------------------------------|
G---------------------------------------------------------------------------|
D----------1-1/2--2-2/6--6--4-----4-6-7--4-6--2-4--4h6p4-2h4p2-0h2p0--------|
A-4-4/6-------------------------------------------------------------------4-|
E---------------------------------------------------------------------------|


E---------------------------------------------------------------------------|
B---------------------------------------------------------------------------|
G---------------------------------------------------------------------------|
D----------1-2-2---2/6-6-6-6--2-4---4-7-6/9---7p6---4-----------------------|
A---4/6-------------------------------------------------------------------4-|
E---------------------------------------------------------------------------|


E---------------------------------------------------------------------------|
B---------------------------------------------------------------------------|
G---------------------------------------------------------------------------|
D----------1-1/2---2-2/6--6--4---4-7-6----2-6-4----2-4-4/6------------------|
A---4/6-------------------------------------------------------------------4-|
E---------------------------------------------------------------------------|

E---------------------------------------------------------------------------|
B---------------------------------------------------------------------------|
G---------------------------------------------------------------------------|
D----------1-2-2---2/6-6-6-6--2-4--4/2-0---0--------------------------------|
A---4/6----------------------------------4---2-4-0--------------------------|
E---------------------------------------------------2-0---------------------|

[Piano intro]

E---0--0---3--3-------------------------------------------------|
B----------1--1-------------------------------------------------|
G---2--2----------2--2------------------------------------------|
D-----------------3--3------------------------------------------|
A-----------------------0---------------------------------------|
E---------------------------------------------------------------|

[Verse 4]

Am                   Am7                 F
   Encumbered forever by desire and ambition
Am                   Am7                 F
  There's a hunger still unsatisfied
Am                   Am7                 F
   Our weary eyes still stray to the horizon
Am                   Am7                 F
   Go down this road I've been so many times


[Chorus 2]

F                  Am    Em   F   G
   The grass was greener
                 Am   C   Dm   F
The light was brighter
                 Am    Em   F   G
The taste was sweeter
                 Am   C   Dm   F
The nights of wonder
                 Am    Em   F   G
With friends surrounded
                 Am   C   Dm   F
The dawn mist glowing
             Am    Em   F   G
The water flowing
              Am   C   Dm   F
The endless river
             Am    Em   F   G
Forever and ever...

(Epic Lap steel solo)

  Am    Em   F   G
  Am    C   Dm   F
(repeat behind the solo)

            
            
Suggest correction
Creating personal tab
Creating personal tab
You can edit any tab online and save it as your Personal.

You can edit, replace or remove any tab part or add personal notes – all changes will be seen only by you.

Personal tabs can be accessed anytime from any device, even offline.
Learn more »
comments
print report bad tab
1 comment total.
0 reply
mikesole66 10 Oct 15, 2017 07:16 PM

Because its Pink Floyd!

guest
You may want to rate the tab now too:
select rating
Wanna post a correction for this tab? Suggest correction