Oops, an error
Loading. Please wait.

High Hopes solo tab

version 3
version 3
20,725 views 72 this week
3 commentsread comments
1 2 3 4 5
x 10
add to favorites
×
Save as Personal and add changes to this tab that will be seen only by you. Learn more ›
×
You can save this tab as Personal to edit and correct it or add notes. All changes will be seen only by you. Learn more »
launch autoscroll
font size
0
reset
how to read this tab
guitar tuner
backing track
0:00
0:00
edit
Autoscroll
slow
fast
+/-
esc
set tempo
stop
Author
-------------------------------------------------------------------------------
                             High Hopes - Pink Floyd
-------------------------------------------------------------------------------
Tabbed by: Bendik Witzoe
Email:     bendikw@gmail.com

Tuning: Standard

Finally pulled myself together and tabbed this, yay! This is the version
Pink Floyd played live on tour, as can be heard on the album Pulse.

A few things you should notice about this solo:
-Strings that aren't played on should be muted more or less actively.
 Normally it's not all that important, but I've marked the places
 where active muting is required for the song to sound right with *.

-When playing the highest notes in this solo, the frets don't actually
 exist, they are the imaginary frets to hit the right tone. I included
 the actual tones as well. Some people mark the positions of the
 imaginary frets on their guitar to make things easier. Most play them
 by ear though.

-Use lotsa chorus and some delay on your amp to get the right sound.

Legend:
~                     let ring
*                     mute string 
/                     slide
/s                    slide slowly
/in front of fret     slide up to
\after fret           slide down from
()                    parenthesis parts are played fast (but not quietly)


e|----8~---/11/10---/8/6~-----8-6-6/8~-6-------------------------------|
B|-2/8*---------------------/8*---------8/6~-4/6~/8---/6/4/3/4/3*------|
G|--------------------------------------------------------------3/5~~--|
D|---------------------------------------------------------------------|
A|---------------------------------------------------------------------|
E|---------------------------------------------------------------------|

e|--------6-8/10/11/13~13/15---/20/18~--/20/18~---(15/13*)/15~~~-------|
B|-8/6/8---------------------------------------------------------------|
G|---------------------------------------------------------------------|
D|---------------------------------------------------------------------|
A|---------------------------------------------------------------------|
E|---------------------------------------------------------------------|

e|---8-10-/11/10--/6---------------------------------------------------|
B|-/8*--------------/8~-(6/8)6/8~--8/9/8/6~--4/3*----------------------|
G|----------------------------------------------3/5~-------------------|
D|---------------------------------------------------------------------|
A|---------------------------------------------------------------------|
E|---------------------------------------------------------------------|

e|-----8/6/8~-8/10/11~---10/11/13~---11/13/15~-------------------------|
B|-8-8-----------------------------------------------------------------|
G|---------------------------------------------------------------------|
D|---------------------------------------------------------------------|
A|---------------------------------------------------------------------|
E|---------------------------------------------------------------------|

e|-(15/)20/22/23/25[F]/27[G]/30[Bb]/32[C]~~~\----8/11/10---/6~---------|
B|---------------------------------------------/8*-----------6/8-------|
G|---------------------------------------------------------------------|
D|---------------------------------------------------------------------|
A|---------------------------------------------------------------------|
E|---------------------------------------------------------------------|

e|---------------------------------------------------------------------|
B|-(6/8)6/8~--8/9/8/6~--4/6/8~/9/8/6~---/4~4/3*------3/4*--------------|
G|--------------------------------------------3~--3/5*--3/5~-----------|
D|---------------------------------------------------------------------|
A|---------------------------------------------------------------------|
E|---------------------------------------------------------------------|

e|----------------------------15/11--/13/8~--8/11/10-------------------|
B|----------------------------------------------------11/6-6/8~--------|
G|-(3/5)3/5~--/8/10~10/12~~--------------------------------------------|
D|---------------------------------------------------------------------|
A|---------------------------------------------------------------------|
E|---------------------------------------------------------------------|

e|---------------------------------15/11--/13/8~--8/10/11/10-----------|
B|-(6/8)6/8~--8/9/8/6~--4/6/8/s6---------------------------------------|
G|---------------------------------------------------------------------|
D|---------------------------------------------------------------------|
A|---------------------------------------------------------------------|
E|---------------------------------------------------------------------|

e|-/6~-----------------------------------------------------------------|
B|------(6/8)6/8~--(6/8)6/8/6/4/3--------------3/4*--------------------|
G|--------------------------------5/3/5~/3--3/5*--3/5~-----------------|
D|---------------------------------------------------------------------|
A|---------------------------------------------------------------------|
E|---------------------------------------------------------------------|

e|-3-3/6/8~--8/15~\--/8~--8/15--15/16/15/13/15~--15/16/15/13/15~-------|
B|---------------------------------------------------------------------|
G|---------------------------------------------------------------------|
D|---------------------------------------------------------------------|
A|---------------------------------------------------------------------|
E|---------------------------------------------------------------------|

e|-15/16/15/13/15~---(15/)20/22/23/25[F]/27[G]/30[Bb]/32[C]~~~---------|
B|---------------------------------------------------------------------|
G|---------------------------------------------------------------------|
D|---------------------------------------------------------------------|
A|---------------------------------------------------------------------|
E|---------------------------------------------------------------------|



===============================================================================

            
            
Suggest correction
Creating personal tab
Creating personal tab
You can edit any tab online and save it as your Personal.

You can edit, replace or remove any tab part or add personal notes – all changes will be seen only by you.

Personal tabs can be accessed anytime from any device, even offline.
Learn more »
comments
print report bad tab
3 comments total.
-1 reply
rokr345 27 Mar 25, 2010 02:56 AM

this solo is actually played on a steel guitar live. Not on a normal guitar. It shows the steel guitar on Pulse.

+1 reply
Warfieboi 15 Apr 21, 2010 04:15 AM

Indeed it is, but very few of us can afford a lap steel guitar. :)

This tab is intended to enable people to play it with a normal guitar. If available though, a lap steel will sound a great deal better.

0 reply
tuzo_32 10 Mar 29, 2017 06:17 PM

some tips or recommendations to do not "fret buzzes" with the slide please

guest
You may want to rate the tab now too:
select rating
Wanna post a correction for this tab? Suggest correction