Oops, an error
Loading. Please wait.
We have an official Is There Anybody Out There tab made by UG professional guitarists. Check out the tab »
×
545,114 views 1,380 this week
60 commentsread comments
1 2 3 4 5
x 446
add to favorites
×
Save as Personal and add changes to this tab that will be seen only by you. Learn more ›
×
You can save this tab as Personal to edit and correct it or add notes. All changes will be seen only by you. Learn more »
launch autoscroll
font size
0
reset
how to read this tab
guitar tuner
backing track
0:00
0:00
edit
Autoscroll
slow
fast
+/-
esc
set tempo
stop
                      IS THERE ANYBODY OUT THERE?   
                              Pink Floyd
                       From the Album "The Wall".
             
                Tabs By John Ware - meat5000@yahoo.com

     *** This my own comprehension of the tabs for this tune. ***
     ***     However, I know that it is quite accurate.       ***


           

               Am
           E-|-------||
           B-|-------||
           G-|----2--||   x14   (Yes Fourteen! Strange Number, I know)
           D-|-------||
           A-|-0-----||
           E-|-------||

     Am                Am/F             Am/F#              Am/F
E-|-------0---------|-------0---------|-------0---------|-------0---------|
B-|-----1---1-------|-----1---1-------|-----1---1-------|-----1---1-------|
G-|---2-------2---2-|---2-------2---2-|---2-------2---2-|---2-------2---2-|
D-|-2-----------2---|-3-----------3---|-4-----------4---|-3-----------3---|
A-|-----------------|-----------------|-----------------|-----------------|
E-|-----------------|-----------------|-----------------|-----------------|

    Am       Am/D      Am/C    Am/B      Am
E-|-------0-------0-|-------0-------0-|---------0-------|-----------------|
B-|-----1-------1---|-----1-------1---|-------1---1-----|-------1---------|
G-|---2-------2-----|---2-------2-----|-----2-------2---|-----2---2-------|
D-|-2-------0-------|-----------------|---2-----------2-|---2-------2---2-|
A-|-----------------|-3-------2-------|-0---------------|-0-----------0---|
E-|-----------------|-----------------|-----------------|-----------------|


E-|---------0-------|-----------------|
B-|-------1---1-----|-------1---------|
G-|-----2-------2---|-----2---2-------|
D-|---2-----------2-|---2-------2---2-|
A-|-0---------------|-0-----------0---|
E-|-----------------|-----------------|

    Am                Am/F              Am/F#             Am/F
E-|-------0---------|-------0---------|-------0---------|-------0---------|
B-|-----1---1-------|-----1---1-------|-----1---1-------|-----1---1-------|
G-|---2-------2---2-|---2-------2---2-|---2-------2---2-|---2-------2---2-|
D-|-2-----------2---|-3-----------3---|-4-----------4---|-3-----------3---|
A-|-----------------|-----------------|-----------------|-----------------|
E-|-----------------|-----------------|-----------------|-----------------|

    F      Am/D                         Am
E-|---------------0-|-------0---------|---------0-------|
B-|-----1-------1---|-----1---1-------|-------1---1-----|
G-|---2-------2-----|---2-------2-----|-----2-------2---|
D-|-3-----2-0-------|-0---------------|---2-----------2-|
A-|-----------------|-------------3-2-|-0---------------|
E-|-----------------|-----------------|-----------------|

E-|-----------------|---------0-------|---------0-------|
B-|-------1---------|-------1---1-----|-------1---------|
G-|-----2---2-------|-----2-------2---|-----2-----------|
D-|---2-------2---2-|---2-----------2-|---2-------------|
A-|-0-----------0---|-0---------------|-0---------------|
E-|-----------------|-----------------|-----------------|

    C                 G/B               Am              Legato Slide
E-|---------0-------|-----------0-----|---------0-------|----------------|
B-|-------1---1-----|-------1h3---3-1-|-------0---0-----|-5---3--/1--/0--|
G-|-----0-------0---|-----0-----------|-2---0-------2/5-|---5---4/--2/--0|
D-|-2-2-----------2-|---0-------------|-2-2-------------|----------------|
A-|-3---------------|-2---------------|-0---------------|----------------|
E-|-----------------|-----------------|-----------------|----------------|

    C                  G/B               Am               Let Ring Out
E-|---------0-------|-----------0-----|---------0-------|----8~~----7~~--|
B-|-------1---1-----|-------1h3---3-1-|-------0---0-----|----------------|
G-|-----0-------0---|-----0-----------|-----2-------0---|-9------7-------|
D-|---2-----------2-|---0-------------|---2-------------|----------------|
A-|-3---------------|-2---------------|-0---------------|----------------|
E-|-----------------|-----------------|-----------------|----------------|

    Am                 Am/F              Am/F#             Am/F       *
E-|-------0---------|-------0---------|-------0---------|-------0---------|
B-|-----1---1-------|-----1---1-------|-----1---1-------|-----1---1-------|
G-|---2-------2---2-|---2-------2---2-|---2-------2---2-|---2-------2---2-|
D-|-2-----------2---|-3-----------3---|-4-----------4---|-3-----------3---|
A-|-----------------|-----------------|-----------------|-----------------|
E-|-----------------|-----------------|-----------------|-----------------|
                                                                 poco ritard.
                                                                   rit.


                                                                     *
    Am       Am/D      Am/C     Am/B    Am         Let Notes Ring    Am            
E-|-------0-------0-|-------0-------0-|--------------5--|-7/8--------12---||
B-|-----1-------1---|-----1-------1---|--------1 /5-----|------------10---||
G-|---2-------2-----|---2-------2-----|-----2-----------|------------9----||
D-|-2-------0-------|-----------------|---2-------------|------------10---||
A-|-----------------|-3-------2-------|-0---------------|------------0----||
E-|-----------------|-----------------|-----------------|-----------------||
                                      | ritardando poco a poco.      Rake


    Tabs by John Ware.
    meat5000@yahoo.com

    Distribute Freely. They are the most accurate I've found so far.

    };-#)>

    ***********************************

    h    Hammer on
    /    Slide 

    ***********************************

            
            
Suggest correction
Creating personal tab
Creating personal tab
You can edit any tab online and save it as your Personal.

You can edit, replace or remove any tab part or add personal notes – all changes will be seen only by you.

Personal tabs can be accessed anytime from any device, even offline.
Learn more »
comments
print report bad tab
60 comments total. Showing first comments. show 1 bad comment
+18 reply
ninjaadam44 160 Nov 22, 2002 07:00 PM

great tab, man.

0 reply
meat5000 90 Mar 21, 2004 07:00 PM

The first two are implied. If you try playing 16 from when you think it begins you will probably end up overshooting by two.

guest
You may want to rate the tab now too:
select rating
Wanna post a correction for this tab? Suggest correction