Oops, an error
Loading. Please wait.

Lost For Words chords

version 2
version 2

Whole song

Interactive

12,499 views 219 this week
2 commentsread comments
1 2 3 4 5
x 27
add to favorites
×
Save as Personal and add changes to this tab that will be seen only by you. Learn more ›
×
You can save this tab as Personal to edit and correct it or add notes. All changes will be seen only by you. Learn more »
launch autoscroll
font size
0
reset
transpose
0
reset
display chords
guitar tuner
backing track
0:00
0:00
edit
Autoscroll
slow
fast
+/-
esc
set tempo
stop
Strumming
There is no strumming pattern for this song yet. and get +5 IQ
---------------------------------------------------------------------------------------------------------------
                                          Artist - Pink Floyd
                                         *********************
                                         Song - Lost For Words
                                        ***********************
                                      Album - Division Bell (1994)   
                                     ******************************
                                          Tabbed By - Ayreon77
                                         **********************
---------------------------------------------------------------------------------------------------------------
Tuning = Standard

p   = Pull Off
h   = Hammer On
b   = Bend
rb  = Release Bend
rbp = Release Bend Pulloff
br  = Bend Release
brp = Bend Release Pulloff
/   = Slide
UB  = Union Bend


INTRO
******
00:45
Guitar 1
             F            C                 F            C
e-----------------------------|------------------------------|
B-------------h---------------|--------------h---------------|
G-----h---0--0-2--2-2--0---h--|------h---0--0-2--2-2--0---h--|
D----0-2------------------0-2-|-----0-2------------------0-2-|
A-3---------------------------|--3---------------------------|
E-----------------------------|------------------------------|

             F            Am  G            F     
e---------------------------|----------------|----------|
B-------------h-------------|----------------|----------|
G-----h---0--0-2--2-2--0----|-----h----------|-----h--0-|
D----0-2------------------2-|-0--0-2-0-------|----0-2---|
A-3-------------------------|-----------3--0-|-3--------|
E---------------------------|----------------|----------|


Guitar 1 continues through solo


-----------------------
01:07
ACOUSTIC SOLO 1 
****************
  F                 C     F                  C          p  F                    Am
e|-----------------------|---------------------|-------8-7--s---|----------------------|
B|--s--8--s----p-------b-|-0h1-1--p------------|--s--8-----8\10-|-8--s-----p-------b---|
G|-7\9---9\7--7-5---5--7-|-0h2-2-2-0---0--p----|-5\9------------|---9\7-5-7-5---5--7-5-|
D|----------------7------|---3-3-----3-0-2-0-2-|----------------|-------------7--------|
A|-----------------------|-------------------3-|----------------|----------------------|
E|-----------------------|---------------------|----------------|----------------------|

   G             F                 C
e|-------------------------------|--------------|
B|-br----------------------------|--------------|
G|-4--------------h--------------|--------------|
D|----5-5---s--5-5-7--5--5--s----|--p-----------|
A|---------5\7-------------7\5-3-|-5-3----3~~~~-|
E|-------------------------------|-----3--------|


-----------------------
VERSE 1
********
      F                          C
I was spending my time in the doldrums
      F                            C
I was caught in a cauldron of hate
       F                    Am
I felt persecuted and paralyzed
               G                          F
I thought that everything else would just wait

C F

-----------------------
VERSE 2
********
              F                         C
While you are wasting your time on your enemies
  F                    C
Engulfed in a fever of spite
  F                       Am
Beyond your tunnel vision reality fades
     G                F
Like shadows into the night

C F

-----------------------
VERSE 3
********
   F                  C
To martyr yourself to caution
   F                    C
Is not going to help at all
                 F                       Am
Because there'll be no safety in numbers
         G                          F
When the right one walks out of the door

C F

-----------------------
BREAK
******
D  F  Bb  Am  Bb  Dm  F  D

-----------------------
KEY CHANGE
VERSE 4
********
        C                         G
Can you see your days blighted by darkness
      C                               G
Is it true you beat your fists on the floor
C                      Em
Stuck in a world of isolation
          D                  C
While the ivy grows over the door

D C
-----------------------
VERSE 5
********
     C                  G
So I open my door to my enemies
      C                           G
And I ask could we wipe the slate clean
         C                 Em
But they tell me please go fuck myself
D                         C
  You know you just can't win

D C

-----------------------
04:00
ACOUSTIC SOLO 2
****************
e|----------------|-------------|------------------------------|-------------|-------------------------|
B|----------------|-------------|-------------------------h----|-------8-7---|-------------------------|
G|-----------h----|-------------|----------s------s--7-7-7-9-7-|--s--7-----9-|-7-7-9--s-----s----------|
D|----s---5-5-7-5-|--s--5--s----|---------7\9-5--7\9-----------|-7\9---------|-------9\7-5-7\9-5-5-7---|
A|-3-5\7----------|-5\7---5\7-5-|--s--5------------------------|-------------|-----------------------7-|
E|----------------|-------------|-5\7---7----------------------|-------------|-------------------------|

                                     s
e|--------------------------------|-3\5-5-3-0---s------s-------|------s---10-10---s---------|
B|--------------------------------|-3\5-5-3-0--3\5-3--3\5-5~~~-|--s--8\10-------12\10-8---8-|
G|----h---s-----------------------|------------2\4-2--2\4-4~~~-|-7\9--------------------9---|
D|-4-4-5-5\7~~~~--5-4-2-0---------|----------------------------|----------------------------|
A|------------------------3-3-2---|----------------------------|----------------------------|
E|------------------------------3-|----------------------------|----------------------------|

           br
e|-12-12--12---------------s------s--------br---------------------|----------------|--------------|
B|-----------13-13-------10\12--12\10-10-8-7-----------br----h----|----------------|--------------|
G|-----------------12-12---------------------7-7--h----9-7--7-9-7-|--s------p------|--------------|
D|-----------------------------------------------7-9-7------------|-9\7-5--7-5---5-|-------s--5-5-|
A|----------------------------------------------------------------|------------7---|------5\7-----|
E|----------------------------------------------------------------|----------------|--------------|


e|-----------------------|-----------------p----|---s------s-----b---br--------p----|
B|-----------------------|---------s--8--10-8---|-12\13--13\12--12--12-10-10--8-7---|
G|--s--7--s-p-----p------|--s--7--7\9---------9-|---------------------------------9-|
D|-7\9---9\7-5---7-5---5-|-7\9------------------|-----------------------------------|
A|-------------7-----7---|----------------------|-----------------------------------|
E|-----------------------|----------------------|-----------------------------------|

                            Fade out................................................................
e|---------------|----------------------|---------------------------|-----------|----------|---------|
B|---------------|----------------------|---------------------------|-----------|----------|---------|
G|-7--s----------|------s--7--s------s--|--s--------br-----p--------|-----------|----------|---------|
D|---9\7-5---5-5-|-7-5-7\9---9\7-5--5\7-|-7\9-7-5-4-4-2-0-2-0-------|--h--------|----------|--s------|
A|---------7-----|----------------------|---------------------2-0---|-2-3-2-0---|--s--5--7-|-5\7-5---|
E|---------------|----------------------|-------------------------3-|---------3-|-5\7------|-------7-|



ENJOY.............

            
            
Suggest correction
Creating personal tab
Creating personal tab
You can edit any tab online and save it as your Personal.

You can edit, replace or remove any tab part or add personal notes – all changes will be seen only by you.

Personal tabs can be accessed anytime from any device, even offline.
Learn more »
comments
print report bad tab
2 comments total.
0 reply
THeBenggu 10 Jun 11, 2017 10:33 AM

Perfect!!

0 reply
ayreon77 21,833 Jun 11, 2017 01:48 PM

thx for that and the 5 tar rate too. :)

guest
You may want to rate the tab now too:
select rating
Wanna post a correction for this tab? Suggest correction