Oops, an error
Loading. Please wait.

Louder Than Words solo tab

version 1
version 1

Solo

15,181 views 39 this week
4 commentsread comments
1 2 3 4 5
x 15
add to favorites
×
Save as Personal and add changes to this tab that will be seen only by you. Learn more ›
×
You can save this tab as Personal to edit and correct it or add notes. All changes will be seen only by you. Learn more »
launch autoscroll
font size
0
reset
how to read this tab
guitar tuner
backing track
0:00
0:00
edit
Autoscroll
slow
fast
+/-
esc
set tempo
stop
Author
Difficulty
---------------------------------------------------------------------------------------------------
                                          Artist - Pink Floyd
                                         *********************
                                        Song - Louder Than Words
                                       **************************
                                    Album - The Endless River (2014)  
                                   **********************************
                                          Tabbed By - Ayreon77
                                        **********************
---------------------------------------------------------------------------------------------------
Tuning = Standard

00:40            00:56          01:05              01:14
e|--------------|--------------|-rake----s--------|--------------------|
B|------b-------|-br--p--------|---1010-8\7---s---|--------------------|
G|-----5---p----|-7--7-5--p----|--x---------7-\-2-|-5-7--5-5---5-------|
D|-5-7----7-5-7-|--------7-5-7-|-x----------------|----------7---7-5-7-|
A|--------------|--------------|------------------|--------------------|
E|--------------|--------------|------------------|--------------------|
                                                                         
01:31    01:36     01:46             02:04      02:14                              02:24   s
e|---b------------|--b----p------s--|----------|------------------------b--rbp----|--s--5-7\10-|
B|-12-----rbp-----|-12--12-11--9-\7-|-b-rp---b-|--h---------------5-5-7-7--7--5-7-|-5\7--------|
G|-------11--9-11-|-----------------|-5---4--5-|-5-7--5-5---5-5-7-----------------|------------|
D|----------------|-----------------|----------|----------7-----------------------|------------|
A|----------------|-----------------|----------|----------------------------------|------------|
E|----------------|-----------------|----------|----------------------------------|------------|


--------------------------------------------------------
03:17                      bring
SOLO                       whammy
*****       small whammy     up
e|--------------------|-------------|-------|-------------------------|--------------------------|
B|---------b-\/-\/-\/-|---b--/\-~~~-|--p-s--|-------brp---------------|--s----b--rp--b--10-10--b-|
G|--s--7-9-9----------|-7-9---------|-9-7\5-|--s--5-7--5-7----p-----s-|-5\7-7-9----7-9---------9-|
D|-5\7----------------|-------------|-------|-5\7------------7-5-7--\-|-5\7-7--------------------|
A|--------------------|-------------|-------|-------------------------|--------------------------|
E|--------------------|-------------|-------|-------------------------|--------------------------|
                                                                                 hold     hold
                   brp       rake     b r           s                    s       bend     bend
e|--s---10-12-10-12---10-12-|--17-19-19---17-\/\/\/-\-|-------b-/\/\/\/\-\-|--b--|--|----|--|--|-rp-----|
B|-8\10---------------------|-17----------------------|-7-10-10------------|-10-10-10---10-10-10---9-10-|
G|--------------------------|-------------------------|--------------------|----------------------------|
D|--------------------------|-------------------------|--------------------|----------------------------|
A|--------------------------|-------------------------|--------------------|----------------------------|
E|--------------------------|-------------------------|--------------------|----------------------------|
                                                            hold
                                                     higher note
e|-b-rp----|-----------|-rb---------|--b-----|----b--b------|----------s----b-|-brp----|----------14~~~-12-|
B|-7---5-7-|--s--5-7---|-7--5--p----|-12--12-|-14----------14----14--12\----7-|-7--5-7-|---s---14----------|
G|---------|-4\6-----6-|------6-4-6-|--------|--------------------------------|--------|-10\15-------------|
D|---------|-----------|------------|--------|--------------------------------|--------|-------------------|
A|---------|-----------|------------|--------|--------------------------------|--------|-------------------|
E|---------|-----------|------------|--------|--------------------------------|--------|-------------------|




ENJOY..........

            
            
Suggest correction
Creating personal tab
Creating personal tab
You can edit any tab online and save it as your Personal.

You can edit, replace or remove any tab part or add personal notes – all changes will be seen only by you.

Personal tabs can be accessed anytime from any device, even offline.
Learn more »
comments
print report bad tab
4 comments total. Showing first comments.
0 reply
omertuvia 22 Dec 20, 2014 01:45 PM, edited at 06:46 pm

why do you put the b\p\h above the string?like instead of|--------------|B|------b-------|G|-----5---p----|D|-5-7----7-5-7-|A|--------------|E|--------------|you can do|---------------|B|--------------|G|-----5b-------|D|-5-7----7p5-7-|A|--------------|E|--------------|its much easier to read

0 reply
omertuvia 22 Dec 20, 2014 01:47 PM

why do you put the b\p\h above the string?
like instead of

|--------------|
B|------b-------|
G|-----5---p----|
D|-5-7----7-5-7-|
A|--------------|
E|--------------|

you can do

|---------------|
B|--------------|
G|-----5b-------|
D|-5-7----7p5-7-|
A|--------------|
E|--------------|

its much easier to read

0 reply
ayreon77 21,833 Dec 20, 2014 03:46 PM

no I don't think it is easier to read when there all in a line, to me having them all in a line is too cramped, i like them above it shows the notes off better, and the b and h that are off from the note means that you don;t bend them or hammer them on straight away, but everyone writes tabs the way they like to read them I suppose. i,ve always wrote tabs like that and i'm sticking to it. i don't like tabs the way you like them never have and never will.

guest
You may want to rate the tab now too:
select rating
Wanna post a correction for this tab? Suggest correction