Oops, an error
Loading. Please wait.

Money bass

version 4
version 4

Whole song

3,752 views 6 this week
1 commentread comment
1 2 3 4 5
1 last vote to show rating
add to favorites
×
Save as Personal and add changes to this tab that will be seen only by you. Learn more ›
×
You can save this tab as Personal to edit and correct it or add notes. All changes will be seen only by you. Learn more »
launch autoscroll
font size
0
reset
guitar tuner
backing track
0:00
0:00
edit
Autoscroll
slow
fast
+/-
esc
set tempo
stop
Author
Difficulty
Pink Floyd - Money -  Delicate Sound of Thunder bass solo
Tabbed by Patrizio Boschi (http://patrizioboschi.it)

This is (...almost!) the bass solo performed by Guy Pratt in the middle section
of Money, during the Delicate Sound of Thunder tour. It is the DSOT album
version, not the Venice one; the latter is a bit more difficult/aggressive.

GEAR:
- Fender Jazz Bass
- Compressor
- Octaver

TUNING:
Standard EADG

TEMPO:
138bpm



Start

-10h9-7-----7---7-----------14-16-14---14p11-14-13------9-11-11-11-11-10-9---------|
----------9---9---9~---12/14-----------------------14-9--------------------11-10-9-|
-----------------------------------------------------------------------------------|
-----------------------------------------------------------------------------------|


-------16----18~---------16-18-19-18-16-|
-14/16----16-------14/16----------------|
----------------------------------------|
----------------------------------------|


-14p11h14-13-------11-11-11-11-11\0-------9-7\----|
-------------14-9--------------------9-12------9\-|
--------------------------------------------------|
--------------------------------------------------|


First scale - you may improvise with standard down-up scale exercises here! :)

-9p7---7-------------------------------------|
-----9---9-8-7\5-7-5---5---------------------|
---------------------7---7p5---5-------------|
-----------------------------7---7-5-7-5-3-0-|


----------------------~-/12~-9~-|
--------------7-9-12-12---------|
-0-5h7-0-7h10-------------------|
--------------------------------|


Second scale

-9p7---7p6---------------7-7-7-9-9-9-11-11-11-14-14-14-16-16-16----------14----14\-|
-----9-----7---5/7-9-9-9----------------------------------------14-14-14----14---\-|
-------------7---------------------------------------------------------------------|
-----------------------------------------------------------------------------------|


Finale

--11p9---11p9---11p9-- 11p9---11p9-- 11p-\-|
-/-----9------9----- 9----- 9------9----9\-|
-------------------------------------------|
-------------------------------------------|


----------------------------------------------------------|
-9-9-9-7-7-7----------------------------------------------|
-------------10-10-10-9-9-9-7-7-7-------------------------|
----------------------------------10-10-10-9-9-9-8-8-8-7\-|

            
            
Suggest correction
Creating personal tab
Creating personal tab
You can edit any tab online and save it as your Personal.

You can edit, replace or remove any tab part or add personal notes – all changes will be seen only by you.

Personal tabs can be accessed anytime from any device, even offline.
Learn more »
Give kudos to tab author, rate the tab!
1 2 3 4 5
comments
print report bad tab
1 comment total.
0 reply
KaduPH 10 Dec 24, 2014 06:19 AM

Clearly wrong. This tab is on the wrong octave, and it complicates and easy pentatonic riff. This is why I give it only 1 star rating

guest
You may want to rate the tab now too:
select rating
Wanna post a correction for this tab? Suggest correction