Oops, an error
Loading. Please wait.

Money tab

version 4
version 4
192,414 views 477 this week
8 commentsread comments
1 2 3 4 5
x 48
add to favorites
×
Save as Personal and add changes to this tab that will be seen only by you. Learn more ›
×
You can save this tab as Personal to edit and correct it or add notes. All changes will be seen only by you. Learn more »
launch autoscroll
font size
0
reset
how to read this tab
guitar tuner
backing track
0:00
0:00
edit
Autoscroll
slow
fast
+/-
esc
set tempo
stop
Author
Difficulty
                                      MONEY
                            As recorded by Pink Floyd
                   (From the 1973 Album DARK SIDE OF THE MOON)

Words and Music by Roger Waters


          B5                   F#5                  E5
      x 2 4 4 x x          2 4 4 x x x          0 2 2 x x x

Gtr I (E A D G B E) - 'Untitled'
Gtr II (E A D G B E) - 'Untitled'
Gtr III (E A D G B E) - 'Untitled'
Gtr IV (E A D G B E) - 'Untitled'
Gtr V (E A D G B E) - 'Untitled'


[Intro]

     Medium Rock Q=118(8=s8)
    7/4
     Gtr I
     Q  E E E E Q  Q      E E Q   4x     Q  E E E E Q    Q      E    E Q   4x
e||-------------------------------||-||------------------------------------||
B||o-----------------------------o||-||o----------------------------------o||
G||-----4-------------------------||-||-----4------------------------------||
D||-------4-----------------------||-||-------4----------------------------||
A||o-2------2-------------2---5--o||-||o-2------2---------------2------5--o||
E||-------------2--5b5.5----------||-||-------------2----5b5.5-------------||
|
 |   Gtr III
 |   W                            4x     Q  Q   Q   S E. Q      S E.   Q   4x
e||-------------------------------||-||------------------------------------||
B||o-----------------------------o||-||o----7-----------------------------o||
G||-------------------------------||-||-----7-------7-----------7----------||
D||-------------------------------||-||-------------7-----------7----------||
A||o-----------------------------o||-||o----------------------------------o||
E||-------------------------------||-||------------------------------------||


[Verse]

     B5                                                               B5
        Gtr II
     Q  E e Q   S E. Q      S E.   Q    Q  E e Q   S E. Q      S E.   Q
e||-----------------------------------|----------------------------------|
B||o----7-7-----7-----------7---------|----7-7-----7-----------7---------|
G||-----7-7-----7-----------7---------|----7-7-----7-----------7---------|
D||-----------------------------------|----------------------------------|
A||o----------------------------------|----------------------------------|
E||-----------------------------------|----------------------------------|
|
 |   Gtr I
 |   Q  E E E E Q    Q      E    E Q    Q  E E E E Q    Q      E    E Q
e||-----------------------------------|----------------------------------|
B||o----------------------------------|----------------------------------|
G||-----4-----------------------------|----4-----------------------------|
D||-------4---------------------------|------4---------------------------|
A||o-2------2---------------2------5--|-2------2---------------2------5--|
E||-------------2----5b5.5------------|------------2----5b5.5------------|


   Q  Q   Q   Q  H.              Q  E e Q   S E. Q      S E.   Q
e|-----------------------------|-----------------------------------|
B|-7------7--------------------|----7-7-----7-----------7----------|
G|-7------7--------------------|----7-7-----7-----------7----------|
D|-----------------------------|-----------------------------------|
A|-----------------------------|-----------------------------------|
E|-----------------------------|-----------------------------------|
|
 | Q  E E E E Q  Q      E E Q    Q  E E E E Q    Q      E    E Q
e|-----------------------------|-----------------------------------|
B|-----------------------------|-----------------------------------|
G|----4------------------------|----4------------------------------|
D|------4----------------------|------4----------------------------|
A|-2------2-------------2---5--|-2------2---------------2------5---|
E|------------2--5b5.5---------|------------2----5b5.5-------------|


   B5                                                                B5
   Q  E e Q   S E. Q      S E.   Q    E e Q   S E.   Q  S     E. Q   Q
e|----------------------------------|-----------------------------------|
B|----7-7-----7-----------7---------|-7-7-----7---------7---------------|
G|----7-7-----7-----------7---------|-7-7-----7---------7---------------|
D|----------------------------------|-----------------------------------|
A|----------------------------------|-----------------------------------|
E|----------------------------------|-----------------------------------|
|
 | Q  E E E E Q    Q      E    E Q    Q   E E E    E Q  Q        E E Q
e|----------------------------------|-----------------------------------|
B|----------------------------------|-----------------------------------|
G|----4-----------------------------|-----4-----------------------------|
D|------4---------------------------|-------4---------------------------|
A|-2------2---------------2------5--|-2-------2------------------2---5--|
E|------------2----5b5.5------------|----------------2--5b5.5-----------|


   Q  Q   Q   H.             E e   Q  E e Q   S E. Q      S E.   Q
e|-------------------------------|------------------------------------|
B|----7----------------------7-7-|----7-7-----7-----------7-----------|
G|----7----------------------7-7-|----7-7-----7-----------7-----------|
D|-------------------------------|------------------------------------|
A|-------------------------------|------------------------------------|
E|-------------------------------|------------------------------------|
|
 | Q  E E E E Q   Q      E E Q     Q  E E E E Q    Q      E    E Q
e|-------------------------------|------------------------------------|
B|-------------------------------|------------------------------------|
G|----4--------------------------|----4-------------------------------|
D|------4------------------------|------4-----------------------------|
A|-2------2--------------2---5---|-2------2---------------2------5----|
E|------------2---5b5.5----------|------------2----5b5.5--------------|


  Gtrs I, II                                        G
       |-3-|                   |-3-|
  H    E E E Q  Q  E E Q    Q  E E E Q  Q  Q  Q  Q
e|-------------------------|-------------------------|
B|-------------------------|-------------------------|
G|-------------------------|-------------------------|
D|-4----4---------------4--|-3--2--------------------|
A|----------4-------4------|--------2----------2--5--|
E|------------2--5---------|----------0--3--5--------|
|
 | W                         W
e|-------------------------|-------------------------|
B|-------------------------|-------------------------|
G|-------------------------|-------------------------|
D|-------------------------|-------------------------|
A|-------------------------|-------------------------|
E|-------------------------|-------------------------|


  tr II
   Q  E e Q   S E. Q      S E.   Q    Q  E e Q   S E. Q      S E.   Q
e|----------------------------------|------------------------------------||
B|----7-7-----7-----------7---------|----7-7-----7-----------7----------o||
G|----7-7-----7-----------7---------|----7-7-----7-----------7-----------||
D|----------------------------------|------------------------------------||
A|----------------------------------|-----------------------------------o||
E|----------------------------------|------------------------------------||
|
 | Gtr I
 | Q  E E E E Q    Q      E    E Q    Q  E E E E Q    Q      E    E Q
e|----------------------------------|------------------------------------||
B|----------------------------------|-----------------------------------o||
G|----4-----------------------------|----4-------------------------------||
D|------4---------------------------|------4-----------------------------||
A|-2------2---------------2------5--|-2------2---------------2------5---o||
E|------------2----5b5.5------------|------------2----5b5.5--------------||


[Solo]

        B5
   Gtr IV
                                                  |-3-|
   Q  E a      E   +H        +H           +E  E   E E E Q   +E  S S S E. H.
e|----------------------------------------------|--------------------------------------|
B|----------------------------------------------|--------------------------------------|
G|------9b11r(11)-(11)------(11)---------(11)-7-|-9p7----------------------------------|
D|----------------------------------------------|-----9-9---(9)p8p7--------------------|
A|----------------------------------------------|-------------------9------------------|
E|----------------------------------------------|--------------------------------------|
|
 | Gtr I
 | Q  E        E    E  E Q    Q      E E   Q      Q     E E  E  E   Q    Q      E E Q
e|----------------------------------------------|--------------------------------------|
B|----------------------------------------------|--------------------------------------|
G|----4-----------------------------------------|-------4------------------------------|
D|-------------4--------------------------------|---------4----------------------------|
A|-2----------------2----------------2-----5----|-2----------2------------------2---5--|
E|-----------------------2----5b5.5-------------|-------------------2----5b5.5---------|


                                                                |--3--| |3|
  Q   a      E  E  Q    a      E   a      E  H.              Q  E E   E E Q   +Q   +H.
e|----------------------------------------------------------|----------------------------------------|
B|----10b12r(12)-7-10---10b12r(12)-10b12r(12)---------------|----------------------------------------|
G|----------------------------------------------------------|----------------------------------------|
D|----------------------------------------------------------|----9p7---9p7-9---(9)--(9)--------------|
A|----------------------------------------------------------|----------------------------------------|
E|----------------------------------------------------------|----------------------------------------|
|
 | Q          E  E  E E         Q             Q      E E Q    Q  E   E   E   E  Q    Q    
  E E Q
e|----------------------------------------------------------|----------------------------------------|
B|----------------------------------------------------------|----------------------------------------|
G|------------4---------------------------------------------|----4-----------------------------------|
D|---------------4------------------------------------------|--------4-------------------------------|
A|-2----------------2--------------------------------2---5--|-2----------2------------------2---5----|
E|------------------------------2-------------5b5.5---------|-------------------2----5b5.5-----------|


                                          |---3---|            |-3--|                    
|--3--|
  Q   a      H.           E        S   S  E  E    E  +E   E    E  E E E E +H       Q     E E   E Q
e|----12b14r(14)----------14b16.5r(12)p10--------------------|----------------------------------------|
B|----------------------------------------12p10---12-(12)-12p|=10-------------------------------------|
G|-----------------------------------------------------------|----11-7---7-(7)------------------------|
D|-----------------------------------------------------------|-----------------------------9-7---9----|
A|-----------------------------------------------------------|----------------------------------------|
E|-----------------------------------------------------------|----------------------------------------|
|
 | Q          E  E E E Q   Q               E    E      Q        Q      E E  E  E Q  Q      E   E   Q
e|-----------------------------------------------------------|----------------------------------------|
B|-----------------------------------------------------------|----------------------------------------|
G|------------4----------------------------------------------|---------4------------------------------|
D|---------------4-------------------------------------------|-----------4----------------------------|
A|-2---------------2-----------------------2-----------5-----|--2-----------2--------------2-------5--|
E|---------------------2---5b5.5-----------------------------|-------------------2--5b5.5-------------|


   Q  E E E E Q  H.              W             E     E E E  E E
e|-----------------------------|-----------------------------------|
B|-----------------------------|-----------------------7---10------|
G|--------7-9------------------|---------------7-------------------|
D|-9--9-9----------------------|-----------------------------------|
A|-----------------------------|-----------------------------------|
E|-----------------------------|-----------------------------------|
|
 | Q  E E E E Q  Q      E E Q    Q  E E E E Q  Q       E E  Q
e|-----------------------------|-----------------------------------|
B|-----------------------------|-----------------------------------|
G|----4------------------------|----4------------------------------|
D|------4----------------------|------4----------------------------|
A|-2------2-------------2---5--|-2------2--------------2----5------|
E|------------2--5b5.5---------|------------2--5b5.5---------------|


  E5
                                                        |--3--|  |---3---|  |--3---| 
|---3---|
   E      E   +Q     +E   Q        E    H          Q    E  E  E  E  E    E  E  E   E E E E     E E Q   Q
e|-----------------------------------------------------|---12-10---------------------------------------------|
B|-10b12r(12)-(12)---(12)-10b12r==(12)-(12)\-----------|---------12p10---12-10-------------------------------|
G|-----------------------------------------------------|-----------------------11S==9-7---9-7----------------|
D|-----------------------------------------------------|--------------------------------9---------9p7-9------|
A|-----------------------------------------------------|-----------------------------------------------------|
E|-----------------------------------------------------|-----------------------------------------------------|
|
 |  Q           E  E   E   E    Q        Q      E E Q    Q        E    E     E    E   Q     Q         E E Q
e|-----------------------------------------------------|-----------------------------------------------------|
B|-----------------------------------------------------|-----------------------------------------------------|
G|--------------4--------------------------------------|----------4------------------------------------------|
D|-----------------4-----------------------------------|---------------4-------------------------------------|
A|--2------------------2------------------------2---5--|-2-------------------2------------------------2---5--|
E|------------------------------2--------5b5.5---------|------------------------------2-----5b5.5------------|


             |-----3------|        |-----3-----| |-3-|
  Q   a      E        E   E a      E       E   E E E E Q      H
e|--------------------------------------------------------------------|
B|----10b12r(12)b14.5-10p==7------------------------------------------|
G|---------------------------9b11r(11)b13.5-9p==7---------------------|
D|------------------------------------------------9p7-----------------|
A|----------------------------------------------------9---------------|
E|------------------------------------------------------7-------------|
|
 | Q          E          E          E         E   Q     Q      E E Q
e|--------------------------------------------------------------------|
B|--------------------------------------------------------------------|
G|------------4-------------------------------------------------------|
D|-----------------------4--------------------------------------------|
A|-2--------------------------------2--------------------------2---5--|
E|------------------------------------------------2-----5b5.5---------|


                                       ~~~~~~~~~~~~~~~~
             |-----3------| |----3-----|
  Q   a      E        E   E E  E    a  E  +Q    +H           +E  E
e|----10b12r(12)b14.5-10p==7-7--------------------------------------|
B|-----------------------------10---10S12-(12)--(12)---------(12)---|
G|------------------------------------------------------------------|
D|------------------------------------------------------------------|
A|------------------------------------------------------------------|
E|------------------------------------------------------------------|
|
 | Q          E          E   E    E         Q     Q      E E   Q
e|------------------------------------------------------------------|
B|------------------------------------------------------------------|
G|------------4-----------------------------------------------------|
D|-----------------------4------------------------------------------|
A|-2-------------------------2---------------------------2-----5----|
E|------------------------------------------2-----5b5.5-------------|


  B5
                                                                                         
              |--3--|
  a      H              H            H           +E  E    a      Q     E   E  E  E  E  E Q       E  E  E  E  E
e|------------------------------------------------|------------------------10--------------------------------|
B|-9b11r(11)b13.5r=====(10)b12r=====(11)---(11)---|-10b12-(12)--(12)-10S12----12p10-12------12p10-12p10------|
G|----------------------------------------------9-|-----------------------------------------------------11S==|
D|------------------------------------------------|----------------------------------------------------------|
A|------------------------------------------------|----------------------------------------------------------|
E|------------------------------------------------|----------------------------------------------------------|
|
 |        Q        E E   E     E Q    Q      E E   Q              Q     E   E  E  E  Q    Q       E  E  Q
e|------------------------------------------------------|----------------------------------------------------|
B|------------------------------------------------------|----------------------------------------------------|
G|-----------------4------------------------------------|---------4------------------------------------------|
D|-------------------4----------------------------------|-------------4--------------------------------------|
A|--------2--------------2-------------------2-----5----|---2------------2-------------------2-----5---------|
E|-------------------------------2----5b5.5-------------|----------------------2-----5b5.5-------------------|


   |-3-|
   E E E Q   E E Q  E     E E E Q    E E E E E E  E  E  a  E      E  E  E  E E
e|---------------------------------|----------------10-----------12-12----12---|
B|---------------------------------|---------7-9S11----11S14-----------14------|
G|-9p7---7---9------9-------9---9--|-9-----9-----------------------------------|
D|-----9---------------------------|-------------------------------------------|
A|---------------------------------|-------------------------------------------|
E|---------------------------------|-------------------------------------------|
|
 | Q     E E E E Q  Q       E E Q    Q   E E E E  Q        Q         E  E  Q
e|---------------------------------|-------------------------------------------|
B|---------------------------------|-------------------------------------------|
G|-------4-------------------------|-----4-------------------------------------|
D|---------4-----------------------|-------4-----------------------------------|
A|-2---------2--------------2---5--|-2-------2-----------------------2-----5---|
E|---------------2--5b5.5----------|--------------2--------5b5.5---------------|


   F#5
    W              +H        +E  E
e|-14-------------(14)------(14)------|
B|------------------------------------|
G|------------------------------------|
D|------------------------------------|
A|------------------------------------|
E|------------------------------------|
|
 |       |-3-|
 |  H    E E E Q    Q   E E   Q
e|------------------------------------|
B|------------------------------------|
G|------------------------------------|
D|--4----4--------------------4-------|
A|-----------4----------2-------------|
E|-------------2----5-----------------|


      |-3--|
  Q   E E  E  Q   Q   Q   Q   Q
e|----12--------------------------|
B|---------12-------------12--15--|
G|----------------12--14----------|
D|------------14------------------|
A|--------------------------------|
E|--------------------------------|
|
|     |-3--|
| Q   E E  E  Q   Q   Q   Q   Q
e|--------------------------------|
B|--------------------------------|
G|--------------------------------|
D|-3---2--------------------------|
A|----------2--------------2---5--|
E|-------------0---3---5----------|


  B5
 4/4
  Gtr I
   |-3-| |-3-| |-3-| |-3-|
   E E E E E E E E E E E E   W
e|--------------------------|------------------------||
B|-12-----------------------|------------------------||
G|--------------------------|------------------------||
D|--4-4-4-4-4-4-4-4-4-4-4-4-|-4-4-4-4-4-4-4-4-4-4----||
A|--------------------------|------------------------||
E|--------------------------|------------------------||
|  W                         E E E E E E E E E Q
|  |                         |-3-| |-3-| |-3-|
|
 |  W                         W
e|--------------------------|------------------------||
B|--------------------------|------------------------||
G|--------------------------|------------------------||
D|--------------------------|------------------------||
A|--------------------------|------------------------||
E|--------------------------|------------------------||


[Guitar solo 1]

   B5
   Gtr V
                                                       |3-|
   a    +E  E +H     +E   a      +E     +H      +E   E E  Q
e|-----------------------------------|----------------------|
B|-----------------------10b12==(10)-|-(10)----(10)r10-7-10-|
G|-9b11-(9)-7-(7)----(7)-------------|----------------------|
D|-----------------------------------|----------------------|
A|-----------------------------------|----------------------|
E|-----------------------------------|----------------------|


                      |--3--|           |--3--|
  a    +E  E +H       E  E  E    +H     Q  Q  Q
e|-----------------------10----|-----------------|
B|-------------------/12----12-|-(12)------12-12-|
G|-9b11-(9)-7-(7)--------------|-----------------|
D|-----------------------------|-----------------|
A|-----------------------------|-----------------|
E|-----------------------------|-----------------|


                                             |-3--|
   a     +Q    +e   E  H       +H      a    +q  Q Q
e|-12b14-(12)--(12)----------|-----------------------|
B|------------------12-12----|-(12)\-----------------|
G|---------------------------|----------9b11-(9)-7-9-|
D|---------------------------|-----------------------|
A|---------------------------|-----------------------|
E|---------------------------|-----------------------|


                       |---3----|  |---3----|
  H    E a    +Q   E   q  q  a  Q  q  q  E  E
e|--------------------|-7----------10-12-14-12--|
B|------------------7-|---10-10S12--------------|
G|--------9b11-(9)----|-------------------------|
D|-9------------------|-------------------------|
A|--------------------|-------------------------|
E|--------------------|-------------------------|


   E5
    |3-|
    E  Q  E E Q  E  a      +E     +H      +E   E  E  E
e|-------10--------12b14==(12)-|-(12)----(12)r12-10-12-|
B|-12-12-----------------------|-----------------------|
G|-----------------------------|-----------------------|
D|-----------------------------|-----------------------|
A|-----------------------------|-----------------------|
E|-----------------------------|-----------------------|


    Q   Q  Q  Q    Q  Q  Q  E E
e|---------------|--------------|
B|-12--10--------|--------------|
G|---------9--7--|--------------|
D|---------------|-9--7---------|
A|---------------|-------7--5---|
E|---------------|------------7-|


  B5
            |-3-|   |-3-|            |-3--|    |----3-----|  |--3--|
  Q  E E Q  E E E   E E E H    a    +E  E E    E E  a  Q  Q  Q  q  q
e|-----------------|-----------------------7-|------------------10-12-|
B|-----------------|---------------------7---|-10---10S12-12-12-------|
G|-----------------|-7-7--------9b11-(9)-----|------------------------|
D|--------7--9p7---|-------9-----------------|------------------------|
A|----7-9--------9-|-------------------------|------------------------|
E|-7---------------|-------------------------|------------------------|


                               F#5
   |----3----|                                 |--3--|
   E      E  E  Q   Q  E  a     +E     +H      q  q  q
e|-12pb14-12p10-----------14b16-(14)-|-(14)----14-12-10-|
B|--------------12--12---------------|------------------|
G|-----------------------------------|------------------|
D|-----------------------------------|------------------|
A|-----------------------------------|------------------|
E|-----------------------------------|------------------|


   |---3---|
   q  q  a Q a    +H        a     +Q    Q  Q  Q
e|------------------------|-----------------------|
B|-12-10------------------|-10b12-(10)--10--8--7--|
G|-------11S9-9b11-(9)----|-----------------------|
D|------------------------|-----------------------|
A|------------------------|-----------------------|
E|------------------------|-----------------------|


               B5
   Q  Q  Q   e E   +Q   E E +Q   E E   +Q   E E +Q   E E
e|---------------|-------------------|-------------------|
B|---------------|--------7-(7)------|--------9-(9)------|
G|-9--7--6-------|--------7-(7)------|--------9-(9)------|
D|----------10-9-|-(9)-------------9-|-(9)-------------9-|
A|---------------|-------------------|-------------------|
E|---------------|-------------------|-------------------|


               |--3---|
  +Q   E   E  +Q   Q  Q    E E Q     +Q      +Q
e|-----------------------|-------------------------||
B|--------/10-(10)-10-10-|-10----------------------||
G|--------/11-(11)-11-11-|-11---9b10--(9)b11--(9)--||
D|-(9)-------------------|-------------------------||
A|-----------------------|-------------------------||
E|-----------------------|-------------------------||


[Guitar solo 2]

  Gtr II
                       |---3----|
  E E Q  Q  E E   H    Q  a  Q  Q    E  E Q  Q  E E   Q.   a      E   +H
e|-7-----------7-|-----------------|----10---------7-|------------------------|
B|-------------7-|--------10h12-12-|-12------------7-|------------------------|
G|---------------|-----------------|---------------7-|------9b11-(11)-(11)----|
D|---------------|-----------------|-----------------|------------------------|
A|---------------|-----------------|-----------------|------------------------|
E|---------------|-----------------|-----------------|------------------------|


   |-3-|
   E E E Q  H      E Q.   +H
e|---------------|---------------|
B|---------------|---------------|
G|-7-9-----------|---7----(7)----|
D|-----9-9-------|---7----(7)----|
A|---------------|---------------|
E|---------------|---------------|


   |-3-|
   E E E Q  Q  E a      E    Q  Q  Q.   a      E
e|-------------------------|------------------------|
B|-------------------------|------------------------|
G|---------------9b11-(11)-|-9----------9b11-(11)---|
D|-7-9---------x-----------|------------------------|
A|-------------------------|------------------------|
E|-------------------------|------------------------|


                                               |-3--|
   +E  a      Q.   H      H    E a       E    +E  E E
e|-----------------------|-----------------------------|
B|-----------------------|-----------------------------|
G|-(11)-9b11-(11)--------|--------9b11==(11)r-(11)-9p7-|
D|-----------------------|-----------------------------|
A|-----------------------|-----------------------------|
E|-----------------------|-----------------------------|


   a      E  a      Q.   E E E a    E    +E  Q.      Q.   E
e|-------------------------------------|---------------------|
B|-------------------------------------|---------------------|
G|-9b11-(12)-9b11-(11)---9-9-0-7b9-(9)-|-(9)-7b9====(9)---7r-|
D|-------------------------------------|---------------------|
A|-------------------------------------|---------------------|
E|-------------------------------------|---------------------|


                            |-3--|
  H    Q    E  E   H    Q   E  E E
e|-------------10-|------------10---|
B|---------/12----|---------10------|
G|----------------|-----------------|
D|-9--------------|-----------------|
A|----------------|-----------------|
E|----------------|-----------------|


          |------3------|                   |-3--|        |-3--|
   a      E  E  a       E   +H       E E    E  E E Q  Q   E  E E
e|-12b14-(14)---12b14==(14)-(14)r----14---|-12p10-----------------|
B|----------------------------------------|---------------10-10---|
G|----------------------------------------|-----------------------|
D|----------------------------------------|-----------------------|
A|----------------------------------------|-----------------------|
E|----------------------------------------|-----------------------|


    E a  E  +H     E a      E     +E       E   Q    +E  Q.
e|-----------------------------|-----------------------------|
B|-10--------------------------|-----------------------------|
G|----9S11-(11)------9b11-(11)-|-(11)b13.5-9-(11)--(11)-9\---|
D|-----------------------------|-----------------------------|
A|-----------------------------|-----------------------------|
E|-----------------------------|-----------------------------|


   Q  Q   Q  Q    Q   Q  Q  E E
e|--------------|----------------|
B|--------------|----------------|
G|--------------|----------------|
D|-9--7---------|----------------|
A|-------10--9--|-7--------------|
E|--------------|----10--9--8-7--|


   +Q   E E     +Q   E E   +Q   E E     +Q   E E
e|-----------------------|-----------------------|
B|--------7b7.5-(7)------|--------9b9.5-(9)------|
G|--------7-----(7)------|--------9-----(9)------|
D|---------------------9-|-(9)-----------------9-|
A|-----------------------|-----------------------|
E|-(7)-------------------|-----------------------|


                |--3---|    |----3-----|
  +Q   E a  E  +Q   Q  Q    Q  Q       Q  a       Q.         E
e|------------------------|-10-12b12.5-14-12b14==(14)b16.5---12--||
B|------------------10-12-|--------------------------------------||
G|--------9-11-(11)-------|--------------------------------------||
D|-(9)--------------------|--------------------------------------||
A|------------------------|--------------------------------------||
E|------------------------|--------------------------------------||


  B5
                                            |-3--|
   E       E  H.        E  E  a      H      E  E E
e|-10b10.5-12----------|------22b24-(24)----22-22---|
B|------------12\------|---19-----------------------|
G|---------------------|----------------------------|
D|---------------------|----------------------------|
A|---------------------|----------------------------|
E|---------------------|----------------------------|


                             |--3--|
   E  a      E   +H.         Q  q  q  a      E   a      Q    +E
e|-22-----------------------|---------------------------------------|
B|----22b24-(24)-(24)\------|------15-17b19-(19)-15b17-(17)--(17)---|
G|--------------------------|---16----------------------------------|
D|--------------------------|---------------------------------------|
A|--------------------------|---------------------------------------|
E|--------------------------|---------------------------------------|


   ~~~
                                   |--3--|
   H.      E  a      E     +H      Q  q  q
e|-----------------------|-----------------------|
B|------------17b19-(20)-|-(20)----17-17-15b15.5-|
G|-16--------------------|-----------------------|
D|-----------------------|-----------------------|
A|-----------------------|-----------------------|
E|-----------------------|-----------------------|


         |----3-----|         |--3---|
   H     Q  Q       Q    H    Q   Q  Q
e|---------------------|----------------|
B|---------------------|-------------15-|
G|-16------------------|---------/16----|
D|-------14-12b12.5-14-|-16-------------|
A|---------------------|----------------|
E|---------------------|----------------|


  E5
                                          |-3--|
   H    Q  E  E    a       H      +E   E  E  E E
e|---------------|-22b24==(24)r===(24)-22-22-22---|
B|------------19-|--------------------------------|
G|-16------------|--------------------------------|
D|---------------|--------------------------------|
A|---------------|--------------------------------|
E|---------------|--------------------------------|


    E  a       Q.    Q.    a      E     +E   E  a      H      a   E   e
e|-22--------------------------------|----------------------------------|
B|----22b24==(24)---24----22b24-(26)-|-(26)-22-22b24-(24)---------------|
G|-----------------------------------|-----------------------21-(22)-19-|
D|-----------------------------------|----------------------------------|
A|-----------------------------------|----------------------------------|
E|-----------------------------------|----------------------------------|


    +H.       E  a      E     +E   E Q  E  a      Q    a      E
e|-------------------------|-------------------------------------|
B|--------------19----(19)-|-(19)-19------22b24-(24)--22b24-(24)-|
G|-(19)------21-21b23-(23)-|-------------------------------------|
D|-------------------------|-------------------------------------|
A|-------------------------|-------------------------------------|
E|-------------------------|-------------------------------------|


                                                           |-3--|
   +Q    E  a      E   +H       E  E  a       Q    +E   E  E  E E
e|-------22--------------------|------22b24==(24)r=(24)-22-22-22---|
B|-(24)-----22b24-(24)-(24)----|---19------------------------------|
G|-----------------------------|-----------------------------------|
D|-----------------------------|-----------------------------------|
A|-----------------------------|-----------------------------------|
E|-----------------------------|-----------------------------------|


                      |-----3------|
   E  a      E  E  E  E  a      E  E  Q
e|-22-------------------------------------|
B|----22b24-(24)---19-22------------------|
G|-----------------------21b23-(23)---19--|
D|----------------------------------------|
A|----------------------------------------|
E|----------------------------------------|


   |-3--|
   E  E E  E  E  Q   E E    a      Q    Q  Q  Q    Q  Q  Q  Q
e|------------------------|-----------------------|--------------||
B|------------------------|-10b12-(12)--10--8--8--|--------------||
G|------------------------|-----------------------|-9--7--6--5---||
D|-21p19---19-------------|-----------------------|--------------||
A|------------21-21--21---|-----------------------|--------------||
E|------------------------|-----------------------|--------------||


[Verse]

  B5
 7/4
  Gtr III
  Q  W.
  |
  /

   Gtr II
   Q  E  e Q   S E. Q      S E.   Q
e|-----------------------------------|
B|----7--7-----7-----------7---------|
G|----7--7-----7-----------7---------|
D|-----------------------------------|
A|-----------------------------------|
E|-----------------------------------|
|
 | Gtr I
 | Q  E  E E E Q    Q      E    E Q
e|-----------------------------------|
B|-----------------------------------|
G|----4------------------------------|
D|-------4---------------------------|
A|-2-------2---------------2------5--|
E|-------------2----5b5.5------------|


                                       B5
  W..                                  Q      W.
                                       |
                                       /

   Q    E e Q   S E. Q      S E.   Q    Q      Q    Q   Q  H.
e|------------------------------------|------------------------------------|
B|------7-7-----7-----------7---------|-7b7.5-------7----------------------|
G|------7-7-----7-----------7---------|-7-----------7----------------------|
D|------------------------------------|------------------------------------|
A|------------------------------------|------------------------------------|
E|------------------------------------|------------------------------------|
|
 | Q    E E E E Q    Q      E    E Q    Q      E  E E E Q  Q      E E Q
e|------------------------------------|------------------------------------|
B|------------------------------------|------------------------------------|
G|------4-----------------------------|--------4---------------------------|
D|--------4---------------------------|-----------4------------------------|
A|-2--------2---------------2------5--|-2-----------2-------------2---5----|
E|--------------2----5b5.5------------|-----------------2--5b5.5-----------|


                                       B5
  W..                                  Q  W.
                                       |
                                       /

   Q    E e Q   S E. Q      S E.   Q    Q  E  e Q   S E. Q      S E.   Q
e|------------------------------------|-----------------------------------|
B|------7-7-----7-----------7---------|----7--7-----7-----------7---------|
G|------7-7-----7-----------7---------|----7--7-----7-----------7---------|
D|------------------------------------|-----------------------------------|
A|------------------------------------|-----------------------------------|
E|------------------------------------|-----------------------------------|
|
 | Q    E E E E Q    Q      E    E Q    Q  E  E E E Q    Q      E    E Q
e|------------------------------------|-----------------------------------|
B|------------------------------------|-----------------------------------|
G|------4-----------------------------|----4------------------------------|
D|--------4---------------------------|-------4---------------------------|
A|-2--------2---------------2------5--|-2-------2---------------2------5--|
E|--------------2----5b5.5------------|-------------2----5b5.5------------|


                                       B5
  W..                                  Q      W.
                                       |
                                       /

   Q    E e Q   S E. Q      S E.   Q    Q      Q    Q   Q  H.
e|------------------------------------|------------------------------------|
B|------7-7-----7-----------7---------|-7b7.5-------7----------------------|
G|------7-7-----7-----------7---------|-7-----------7----------------------|
D|------------------------------------|------------------------------------|
A|------------------------------------|------------------------------------|
E|------------------------------------|------------------------------------|
|
 | Q    E E E E Q    Q      E    E Q    Q      E  E E E Q  Q      E E Q
e|------------------------------------|------------------------------------|
B|------------------------------------|------------------------------------|
G|------4-----------------------------|--------4---------------------------|
D|--------4---------------------------|-----------4------------------------|
A|-2--------2---------------2------5--|-2-----------2-------------2---5----|
E|--------------2----5b5.5------------|-----------------2--5b5.5-----------|


     W..                                    W..
     Q    E e Q   S E. Q      S E.   Q      Q    E e Q   S E. Q      S E.   Q
e||--------------------------------------||------------------------------------|
B||o------7-7-----7-----------7---------o||------7-7-----7-----------7---------|
G||-------7-7-----7-----------7----------||------7-7-----7-----------7---------|
D||--------------------------------------||------------------------------------|
A||o------------------------------------o||------------------------------------|
E||--------------------------------------||------------------------------------|
|
 |   Q    E E E E Q    Q      E    E Q      Q    E E E E Q    Q      E    E Q
e||--------------------------------------||------------------------------------|
B||o------------------------------------o||------------------------------------|
G||-------4------------------------------||------4-----------------------------|
D||---------4----------------------------||--------4---------------------------|
A||o-2--------2---------------2------5--o||-2--------2---------------2------5--|
E||---------------2----5b5.5-------------||--------------2----5b5.5------------|


  F#5                          E5
  H    W               Q    Q  Q     W           Q
  |                            |
  /                            /

       |-3-|                   |-3-|
  H    E E E Q  Q  E E Q    Q  E E E Q  Q  Q  Q  Q
e|-------------------------|-------------------------|
B|-------------------------|-------------------------|
G|-------------------------|-------------------------|
D|-4----4---------------4--|-3--2--------------------|
A|----------4-------2------|--------2----------2--5--|
E|------------2--5---------|----------0--3--5--------|
|
|      |-3-|                   |-3-|
| H    E E E Q  Q  E E Q    Q  E E E Q  Q  Q  Q  Q
e|-------------------------|-------------------------|
B|-------------------------|-------------------------|
G|-------------------------|-------------------------|
D|-4----4---------------4--|-3--2--------------------|
A|----------4-------2------|--------2----------2--5--|
E|------------2--5---------|----------0--3--5--------|


[Fade out/Guitar solo]

  4/4
   Gtr I
   H       E a      Q    E   H       E  Q   E
e|-------------------------|----------------7-|
B|-------------------------|-----------10-----|
G|-----------9b11-(11)---7-|------------------|
D|-------------------------|------------------|
A|-------------------------|------------------|
E|-------------------------|------------------|
|
 | Gtr II
 | E E E e Q           Q     E E E e Q    Q
e|-------------------------|------------------|
B|-----7-7-----------------|-----7-7----------|
G|-----7-7-----------------|-----7-7----------|
D|-------------------------|------------------|
A|---------------------5---|--------------5---|
E|-7-----------------------|-7----------------|


   Q   Q   E a      Q    E   H       E  E  a      Q
e|-7-----------------------|--------------12b14-(14)---|
B|-------------------------|-----------12--------------|
G|-----------9b11-(11)---7-|---------------------------|
D|-------------------------|---------------------------|
A|-------------------------|---------------------------|
E|-------------------------|---------------------------|
|
 | E E E e Q           Q     E E E e Q            Q
e|-------------------------|---------------------------|
B|-----7-7-----------------|-----7-7-------------------|
G|-----7-7-----------------|-----7-7-------------------|
D|-------------------------|---------------------------|
A|---------------------5---|----------------------5----|
E|-7-----------------------|-7-------------------------|


                                         |------3------|              |-3-|
   +Q    Q   E a      E  E E   +Q    Q   Q a      Q    Q   Q   Q   Q  E E E
e|-(14)---------9b11-(10)---7-|-(7)-----------------------|-------------------|
B|----------------------------|---------------------------|-------------------|
G|----------------------------|-------------9b11-(11)---7-|-------------------|
D|----------------------------|---------------------------|-9----------9-9----|
A|----------------------------|---------------------------|-------------------|
E|----------------------------|---------------------------|-------------------|
|
 |   E  E E e Q           Q      E  E E e Q           Q     E E E e Q  Q
e|----------------------------|---------------------------|-------------------|
B|--------7-7-----------------|-------7-7-----------------|-----7-7-----------|
G|--------7-7-----------------|-------7-7-----------------|-----7-7-----------|
D|----------------------------|---------------------------|-------------------|
A|------------------------5---|-----------------------5---|------------5------|
E|---7------------------------|--7------------------------|-7-----------------|


                               >
   E Q.     E a      Q    E    E  a      Q.     Q   E E   +Q    H      Q
e|------------------------7-|-------------------------7-|-(7)-------------*|
B|-7------------------------|-10-10b12-(12)--------10---|-----------------*|
G|-7----------9b11-(11)-----|---------------------------|-----------------*|
D|---9----------------------|---------------------------|-----------------*|
A|--------------------------|---------------------------|-----------------*|
E|--------------------------|---------------------------|-----------------*|
|
 |                                                  >
 | E E  E e Q           Q      E         E  E e Q   Q      E  E E e Q  Q
e|--------------------------|---------------------------|-----------------*|
B|------7-7-----------------|---------------7-7---------|-------7-7-------*|
G|------7-7-----------------|---------------7-7---------|-------7-7-------*|
D|--------------------------|---------------------------|-----------------*|
A|----------------------5---|-----------------------5---|--------------5--*|
E|-7------------------------|--7------------------------|--7--------------*|


 
************************************

| x    Dead note
| (n)  Ghost note
| h    Hammer-on
| p    Pull-off
| r    Release
| b    Bend
| pb   Pre-bend
| /    Slide up
| \    Slide down 

************************************

            
            
Suggest correction
Creating personal tab
Creating personal tab
You can edit any tab online and save it as your Personal.

You can edit, replace or remove any tab part or add personal notes – all changes will be seen only by you.

Personal tabs can be accessed anytime from any device, even offline.
Learn more »
comments
print report bad tab
8 comments total. Showing first comments.
+1 reply
METSOAD 1,632 Jun 30, 2006 05:59 AM

5.5?

0 reply
Jibbs 431 Jun 30, 2006 04:49 PM

Quarter bend

0 reply
sundeepo1 61 Jun 30, 2006 11:54 PM

It Also Has The Fuzzy Solo (solo 2)

guest
You may want to rate the tab now too:
select rating
Wanna post a correction for this tab? Suggest correction