Oops, an error
Loading. Please wait.

Set The Controls For The Heart Of The Sun tab

version 1
version 1

Whole song

Interactive

32,039 views 72 this week
3 commentsread comments
1 2 3 4 5
x 22
add to favorites
×
Save as Personal and add changes to this tab that will be seen only by you. Learn more ›
×
You can save this tab as Personal to edit and correct it or add notes. All changes will be seen only by you. Learn more »
launch autoscroll
font size
0
reset
how to read this tab
guitar tuner
edit
Autoscroll
slow
fast
+/-
esc
set tempo
stop
Author
Unregistered
Pink Floyd
 Set the controls for the heart of the sun
 Tab transcribed by Eric Lingle
e|----------------------------------------------|
B|----------------------------------------------|
G|----------------------------------------------|
D|----2-2-2-3-2-2-0-0-0-2---2-2-2-3-2-2-0-0-0-2-|
A|----------------------------------------------|
E|----------------------------------------------|

e|----------------------------------------------|
B|----------------------------------------------|
G|----------------------------------------------|
D|----2-2-2-3-2-2-0-0-0-2---2-2-2-3-2-2-0-0-0-2-|
A|----------------------------------------------|
E|----------------------------------------------|

e|----------------------------------------------|
B|----------------------------------------------|
G|----------------------2-2-2-3-2-2-0-0-0-2-----|
D|-2-2-2-3-2-2-0-0-0-2--------------------------|
A|----------------------------------------------|
E|----------------------------------------------|

e|----------------------------------------------|
B|----------------------------------------------|
G|-2-2-2-3-2-2-0-0-0-2--------------------------|
D|-----------------------2-2-2-3-2-2-0-0-0-2----|
A|----------------------------------------------|
E|----------------------------------------------|

e|----------------------------------------------------|
B|----------------------------------------------------|
G|----------------------------------------------------|
D|2-2-2-3-2-2-0-0-0-2-2-2-2-7-5-5-3-3-3-2-2-2-2-7-5-5-|
A|----------------------------------------------------|
E|----------------------------------------------------|

e|----------------------------------------------|
B|----------------------------------------------|
G|----------------------------------------------|
D|--3-3-3-2-0-2-2-2-3-2-2-0-0-0-2-0-2-2-2-3-2-2-|
A|----------------------------------------------|
E|----------------------------------------------|

e|----------------------------------------------------|
B|----------------------------------------------------|
G|----------------------------------------------------|
D|-0-0-0-2-2-2-2-3-2-2-0-0-0-2-0-2-2-2-3-2-2-0-0-0-2--|
A|----------------------------------------------------|
E|----------------------------------------------------|

e|----------------------------------------------|
B|----------------------------------------------|
G|----------------------------------------------|
D|-0-0-0-2-0-2-2-2-2-0-2-2-2-2------------------|
A|----------------------------------------------|
E|----------------------------------------------|

e|------------------------------------------------------|
B|------------------------------------------------------|
G|------------------------------------------------------|
D|--2-2-2-2-0-2-2-2-2-0-2-2-2-2-0-2-0-2-2-2--play about-| 10 times
A|------------------------------------------------------|
E|------------------------------------------------------|

e|--------------------------------------------|
B|--------------------------------------------|
G|--------------------------------------------|
D|--2-2-2-3-2-2-0-0-0-2-0-2-2-2-2-0-2-2-2-2-0-|
A|--------------------------------------------|
E|--------------------------------------------|

            
            
Suggest correction
Creating personal tab
Creating personal tab
You can edit any tab online and save it as your Personal.

You can edit, replace or remove any tab part or add personal notes – all changes will be seen only by you.

Personal tabs can be accessed anytime from any device, even offline.
Learn more »
comments
print report bad tab
3 comments total.
0 reply
superfrood2000 50 Mar 27, 2003 07:00 PM

this look pretty good. nice work

0 reply
Diversion 10 Aug 08, 2006 04:56 AM

sweet job,man.similar to how waters plaid it in the show ive been to lately.

0 reply
pinkfloydrock 10 Feb 12, 2009 05:19 PM

use a slide for a cool sound

guest
Wanna post a correction for this tab? Suggest correction