Oops, an error
Loading. Please wait.

Shine On You Crazy Diamond Part I - Ix tab

version 1
version 1

Whole song

Interactive

265,493 views 426 this week
27 commentsread comments
1 2 3 4 5
x 88
add to favorites
×
Save as Personal and add changes to this tab that will be seen only by you. Learn more ›
×
You can save this tab as Personal to edit and correct it or add notes. All changes will be seen only by you. Learn more »
launch autoscroll
font size
0
reset
how to read this tab
guitar tuner
edit
Autoscroll
slow
fast
+/-
esc
set tempo
stop
Author
Difficulty
*Shine On You Crazy Diamond*
                               All Parts I-IX
                             Wish You Were Here
                     This song is dedicated to Syd Barrett


_____________________________________________________________________________



             *Shine On You Crazy Diamond (Gilmour, Waters, Wright)*
                                  Parts I-V


                           *Part I (00:00-03:56)*
                          (Wright, Waters Gilmour)

 Intro (where guitar comes in) (02:14):
e|-13b15---13-15-------------------------10---------------------------|
B|-----------------------11-13-13b15--13--------15b13p11-13-15--13-15-|
G|--------------------12----------------------------------------------|
D|--------------------------------------------------------------------|
A|--------------------------------------------------------------------|
E|--------------------------------------------------------------------|

e|----------------------------------------------------------------------|
B|----------------------------------------------------------------------|
G|-14b15b14-12-14------------------12b14.5-14.5---14.5b12--10-12-12-b15-|
D|-----------------15-15-12-15------------------------------------------|
A|----------------------------------------------------------------------|
E|----------------------------------------------------------------------|

e|----------------------------13--13b15----15-15-18--18b20-18-\--|
B|---------------------13-b15------------------------------------|
G|-12b15b12-10-12-12---------------------------------------------|
D|---------------------------------------------------------------|
A|---------------------------------------------------------------|
E|---------------------------------------------------------------|

e|-----------------------------------------------------------------|
B|-15b13p11--------------------------------------15b13p11-13-13b15-|
G|---------------10--12---12b15-15-15--10-12-----------------------|
D|------------12---------------------------------------------------|
A|-----------------------------------------------------------------|
E|-----------------------------------------------------------------|

e|-------13--13b15-15-13b15----15b13p10------------------------|
B|-13b15--------------------------------13b15---15b13-11-13-13-|
G|-------------------------------------------------------------|
D|-------------------------------------------------------------|
A|-------------------------------------------------------------|
E|-------------------------------------------------------------|

e|------------------------------------13-------------18------18-18b20-|
B|-----11---15b13p11-13-13b15---13b15----15---/20-20------------------|
G|-/12----------------------------------------------------19----------|
D|--------------------------------------------------------------------|
A|--------------------------------------------------------------------|
E|--------------------------------------------------------------------|

e|-18b20b18-17----15--------------------|
B|-------------18-----------------------|
G|--------------------------------------|
D|--------------------------------------|
A|--------------------------------------|
E|--------------------------------------|


                           *Part II (03:56-06:29)*
                          (Gilmour, Waters, Wright)
                                "Syd's Theme"

 (04:00)
e|-------0---------------------0--------------|
B|---6---------------------6------------------|
G|-----0---------------------0----------------|
D|-8---------------------8--------------------|
A|--------------------------------------------|
E|--------------------------------------------|

e|-------0-----------0------------0--12~----------0--12~-|
B|---6-----------6------------6------13~------6------13~-|
G|-----0-----------0------------0----12~--------0----12~-|
D|-8-----------8------------8---------------8------------|
A|-------------------------------------------------------|
E|-------------------------------------------------------|

e|---------------------------10~-----------0---10~---|
B|---------------------------11~-------6-------11~---|
G|---------------------------12~---------0-----12~---|
D|-----------------------------------8---------------|
A|-3-3-3-3-3-3-3-3-3-3-3/5---------------------------|
E|-1-1-1-1-1-1-1-1-1-1-1/3---------------------------|

e|-----------11~---------10~----------------------------10~-|
B|---6-------11~---------10~----------------------------11~-|
G|-----0-8---12~---8-7---11~----------------------------12~-|
D|-8--------------------------------------------------------|
A|----------------------------3-3-3-3-3-3-3-3-3-3-3/5-------|
E|----------------------------1-1-1-1-1-1-1-1-1-1-1/3-------|

e|-------0---10~---|
B|---6-------11~---|
G|-----0-----12~---|
D|-8---------------|
A|-----------------|
E|-----------------|


 1st Guitar Solo (05:17):
e|-----------------------3--------------------------18p15----18---17b18-17-|
B|-13-b15--13-15-------3---6------------------------------15---------------|
G|---------------12----------5b7--7b5p3-5-3--------------------------------|
D|------------------------------------------5------------------------------|
A|-------------------------------------------------------------------------|
E|-------------------------------------------------------------------------|

e|------------------------------18p15----18p15----18b20---20b18p15-18-15-|
B|-18p15-18b20---20b18p15-18----------15-------15------------------------|
G|-----------------------------------------------------------------------|
D|-----------------------------------------------------------------------|
A|-----------------------------------------------------------------------|
E|-----------------------------------------------------------------------|

e|------------------------------------------------------------------6-----|
B|-11h13p11-13b15--11-13----------------------------------------------6-8-|
G|-----------------------12-----\5-3--------------------3--------/7-------|
D|-----------------------------------5------------------3-5---------------|
A|-------------------------------------\3----------/5---------------------|
E|----------------------------------------6-1/3---------------------------|

e|-----------------------------------------------------------------|
B|-11p10p8----8-----11--13b15b13b13--14b16---14b16---14b16-b-14----|
G|---------10--------------------------------------------------11--|
D|-----------------------------------------------------------------|
A|-----------------------------------------------------------------|
E|-----------------------------------------------------------------|

e|------------------|------------------------------------17b18-17-------|
B|------------------|-18b20-20-18b20b18p15---18b20-20-20----------18b20-|
G|-11h12p11\9h11-11-|---------------------------------------------------|
D|------------------|---------------------------------------------------|
A|------------------|---------------------------------------------------|
E|------------------|---------------------------------------------------|

e|-------------------------------------------------------------------------|
B|-20b18p15-18-------------------------------3b4---4b3-----3---------6-----|
G|-------------17b19---19b17p15----------3-5-----------3-5-----5b7-7---6b8-|
D|------------------------------17-----5-----------------------------------|
A|-------------------------------------------------------------------------|
E|-------------------------------------------------------------------------|

e|-----------------------|
B|-----------------------|
G|-7b5p3-5-5b7-----------|
D|-----------------------|
A|-----------------------|
E|-----------------------|

                           *Part III (06:29-08:43)*
                           (Waters, Gilmour, Wright)

 Trumpet Solo Tab for Guitar:
e|----------5--------5-6----8--5h6-8--6-----11---10-8-----------11--p10-8-11-|
B|-8-----6-----8--------------------------------------8--h10h11--------------|
G|---------------------------------------------------------------------------|
D|---------------------------------------------------------------------------|
A|---------------------------------------------------------------------------|
E|---------------------------------------------------------------------------|

e|-----------------------------------------------------------------|
B|-13p11p10----10--------------------------------------------------|
G|----------13-------10h11-13---------11p10---------11---10--------|
D|------------------------------10h12-------12--------------12-11--|
A|-----------------------------------------------------------------|
E|-----------------------------------------------------------------|

e|-------------10------------------------------|
B|-11---11-13-------12p11----11----------------|
G|------------------------12---------10-12-----|
D|------------------------------13----------12-|
A|---------------------------------------------|
E|---------------------------------------------|

 2nd Guitar Solo (07:40):
e|-----15-15--15-18p15------------3----------------------------------------|
B|-/15-----------------18b20----3---6-----------------------11h13p11-13b15-|
G|------------------------------------5b7---7b5p3-5p3----------------------|
D|----------------------------------------------------5--------------------|
A|-------------------------------------------------------------------------|
E|-------------------------------------------------------------------------|

e|------------------------18---------------6\5-----------------------|
B|-----11-----11----18b20----18b20-\-----------8-\----11h13p11-13b15-|
G|-/12----12----------------------------/7---------------------------|
D|-------------------------------------------------------------------|
A|-------------------------------------------------------------------|
E|-------------------------------------------------------------------|

e|--------------------------------------------------3------------------|
B|-----11-14p13p11-13---13p11--13-13-13p11-13b15------6-3--------------|
G|-/12----------------------------------------------------5-3b5--3---3-|
D|-----------------------------------------------------------------5---|
A|---------------------------------------------------------------------|
E|---------------------------------------------------------------------|

e|---------------------------------------------13b15-15-13b15----|
B|-1--------------------------11h13p11-13b15---------------------|
G|---3-2-------------3-----------------------------------------0-|
D|-------3/5-----------3h5---------------------------------------|
A|-----------3/5---5---------------------------------------------|
E|---------------------------------------------------------------|

e|----------18----18b20---20b18p15-18-15\-------------------------------|
B|-18b20-20----20------------------------------------15-15b17--16b15----|
G|---------------------------------------------15-17--------------------|
D|------------------------------------------17-----------------------16-|
A|----------------------------------------------------------------------|
E|----------------------------------------------------------------------|

e|---------------------------------3---------------------------------------|
B|-------------------------------3---6-------------------------------------|
G|-------------------------------------5b7---7b5p3-5-3----3----------------|
D|-16-16h17p16p14h16-16-17-17--------------------------5----5--------------|
A|-------------------------------------------------------------3-h4-5------|
E|-------------------------------------------------------------------------|


                           *Part IV (08:43-11:10)*
                          (Gilmour, Wright, Waters)

 (08:48)
        Gm                            F#                 A#
 (From "Remember when you were young, you shone like the sun")
e|-------------------------------------------|
B|----------------------------------3-3--3-3-|
G|-------3-5b7b5---------------3----3-3--3-3-|
D|-----5-----------4-----------3----3-3--3-3-|
A|-----------------------------1-------------|
E|-------------------------------------------|

        D#    Dm     Cm  A#  F
 (From "Shine on you cra  zy diamond")
e|--------------------------------------------------|
B|--------------------------------------------------|
G|-8----7----5----3---------------------------------|
D|-8----7----5----3----3----------------------------|
A|-6----5----3----1----3--------3b4b3---------------|
E|---------------------1---------------2b3--1---1-2-|

 (From "Now there's a look in your eyes like black holes in the sky")
e|-------------------------------------------|
B|-----6b8b6------------------------3-3--3-3-|
G|-----------5b7b5--3---6------3----3-3--3-3-|
D|-----------------------------3----3-3--3-3-|
A|-----------------------------1-------------|
E|-------------------------------------------|

 (From "Shine on you crazy diamond")
e|--------------------------13-13-13--10--8/10-------|
B|--------------------------13-13-13--10--8/10--6----|
G|-8----7----5----3-----------------------------5----|
D|-8----7----5----3----3-----------------------------|
A|-6----5----3----1----3-----------------------------|
E|---------------------1-----------------------------|

 (From "You were caught in the crossfire...")
e|---------------------------------------------|
B|---------------------------------------------|
G|---3-5-5b7b5-----3-5-5b7b5-----3-5-5b7b5-----|
D|-5-------------4-------------3-------------2-|
A|---------------------------------------------|
E|---------------------------------------------|

 (From "C'mon you target")
e|--------------------0-----------1-1-------1-----2-----|
B|-----4-4----------1---1---------3-3---------3-----3---|
G|-----5-5--------3-------3-----3-3-3-----------------3-|
D|-1/5------5---2-------------3-------3---0-------------|
A|------------------------------------------------------|
E|------------------------------------------------------|

e|---------------------------------------------------------------------|
B|----------------------------------------6--8b9--8--------------------|
G|-5b7---7b5p3-5b7----6b5-3-5-6--7---7-8------------8--7--8b10-8p7p5---|
D|---------------------------------------------------------------------|
A|---------------------------------------------------------------------|
E|---------------------------------------------------------------------|

e|-------------------|
B|-------------------|
G|-------------------|
D|-4b5b4-3-----------|
A|-------------------|
E|-----------1-2-----|

 (From "You reached for the secret to soon, you cried for the moon")
e|-----------------------------------------|
B|--------------------------------3-3--3-3-|
G|------5-5b7b5-3------------3----3-3--3-3-|
D|----------------4----------3----3-3--3-3-|
A|---------------------------1-------------|
E|-----------------------------------------|

 (From "Shine on you crazy diamond)
e|--------------------------------------------------|
B|--------------------------------------------------|
G|-8----7----5----3---------------------------------|
D|-8----7----5----3----3----------------------------|
A|-6----5----3----1----3--------3b4b3---------------|
E|---------------------1---------------2b3--1---1-2-|

 (From "Threatened by shadows at night, when exposed in the light")
e|------------------------------------------|
B|-6b8b6b8---6--------------------3-3--3-3--|
G|-----------7-5---3h5p3-----3----3-3--3-3--|
D|---------------------------3----3-3--3-3--|
A|---------------------------1--------------|
E|------------------------------------------|

 (From "Shine on you crazy diamond")
e|--------------------------13-13-13--10--8\-------|
B|--------------------------13-13-13--10--8\--6----|
G|-8----7----5----3---------------------------5----|
D|-8----7----5----3----3---------------------------|
A|-6----5----3----1----3---------------------------|
E|---------------------1---------------------------|

 (From "Well, you wore out your welcome...")
e|---------------------------------------------|
B|---------------------------------------------|
G|---3-5-5b7b5-----3-5-5b7b5-----3-5-5b7b5-----|
D|-5-------------4-------------3-------------2-|
A|---------------------------------------------|
E|---------------------------------------------|

 (From "C'mon you raven...")
e|--------------------0-----------1-1-------1-----2-----|
B|-----4-4----------1---1---------3-3---------3-----3---|
G|-----5-5--------3-------3-----3-3-3-----------------3-|
D|-1/5------5---2-------------3-------3---0-------------|
A|------------------------------------------------------|
E|------------------------------------------------------|

                           *Part V (11:11-13:34)*
                                  (Waters)

 Saxophone Solo Guitar Work:
e|-------0---------------------0--------------|
B|---6---------------------6------------------|
G|-----0---------------------0----------------|
D|-8---------------------8--------------------|
A|--------------------------------------------|
E|--------------------------------------------|

e|------|-----------------10------------|
B|------|---11-----13------------13-----|
G|------|-----10-----10-----10-----10---|
D|------|-------12-----12-----12-----12-|
A|------|-------------------------------|
E|-1h3--|-------------------------------|repeat 2X

e|-0------------10-----|
B|-------13------------|
G|--10-----10-----10---|
D|----12-----12-----12-|
A|---------------------|
E|---------------------|repeat 8x

 (Later in the song)
e|------------------------------------------|
B|-11-11-10-----10-----11-----10-----10-----|
G|----------12----10-----10-----10-----10---|
D|------------------12-----12-----12-----12-|
A|------------------------------------------|
E|------------------------------------------|

e|---------------|
B|-11-----10-----|
G|---10-----10---|
D|-----12-----12-|
A|---------------|
E|---------------|repeat 2x

 Outro
e|-----------------10------------|
B|---11-----13------------13-----|
G|-----10-----10-----10-----10---|
D|-------12-----12-----12-----12-|
A|-------------------------------|
E|-------------------------------|repeat

 Saxophone Tab for Guitar:
e|---------------------------------------------------------------------|
B|---------------------------------------------------------6--h8-------|
G|-5b7-5---------------------------------------------------------7p5-5-|
D|--------5-5----5-7--5-7-8p7h8p7h8p7-5----5h7h8p7p5---5h7-------------|
A|---------------------------------------------------8-----------------|
E|---------------------------------------------------------------------|

e|-------------------------------------------------------------------------3-|
B|-------------------------5-6----------------------------------------1-/5---|
G|-------------7p5h7---5h7------7p5-7p5-----3h5p3h5-3---0h2-0---0h2h3--------|
D|-8p7h8---7h8--------------------------5------------------------------------|
A|---------------------------------------------------------------------------|
E|---------------------------------------------------------------------------|

e|--------------------------------------------------3---------------|
B|-5-------------------------------------------1h3----3--3h1-3------|
G|---5-3-2-0--3p2h3--0---3--3p2p0--------0h2h3----------------------|
D|-----------------------------------0h3----------------------------|
A|------------------------------------------------------------------|
E|------------------------------------------------------------------|

e|-------------------------2-2----------|
B|-2---------------------3--------------|
G|---2p0-2-2---------3h5--------5p3p0---|
D|-----------0---3h5------------------0-|
A|--------------------------------------|
E|--------------------------------------|

e|---------------/10-10--------------------------------8-----------------|
B|-----------------------10--10-8------8---8h10----8-----10-10---8-11b13-|
G|-------0h2h3/5-------------------9p7---7-----------7-------------------|
D|-0h2h3-----------------------------------------------------------------|
A|-----------------------------------------------------------------------|
E|-----------------------------------------------------------------------|

e|-------------------------8h10p8----8-----------8-----------------------|
B|-13b11p10p8---------8h11--------11---8-----/11---13---8----------------|
G|------------9---7h9--------------------9----------------10-10b12-10b12-|
D|-----------------------------------------------------------------------|
A|-----------------------------------------------------------------------|
E|-----------------------------------------------------------------------|

e|------------------------10----10h15p10----------------------------|
B|-------------------8-------------------13-13b15--13b15-13b15--13--|
G|-12b10p7-----7-------10-------------------------------------------|
D|----------8----10-------------------------------------------------|
A|------------------------------------------------------------------|
E|------------------------------------------------------------------|

e|-------------------------------------11---------------12b14-14--10\-|
B|-13-13p11---------11-13b15b13-----------14--11----------------------|
G|----------12---12-------------11---------------11-------------------|
D|---------------------------------13---------------13----------------|
A|--------------------------------------------------------------------|
E|--------------------------------------------------------------------|

e|-10----10--\8h10p8h10p8h10--10-------------------------------------------|
B|----13-------------------------13-11-------------------------------------|
G|-------------------------------------12---------------------12--15b13-10-|
D|----------------------------------------12p10-12-------------------------|
A|---------------------------------------------------------10--------------|
E|---------------------------------------------------10-13-----------------|

Fade Away



_____________________________________________________________________________
_____________________________________________________________________________
_____________________________________________________________________________

            *Shine On You Crazy Diamond (Gilmour, Waters, Wright)*
                                 Parts VI-IX

                           *Part VI (00:00-04:41)*
                          (Wright, Waters, Gilmour)

 Intro (For bass, but can also be played on guitar):
e|-------------------------------------------------|
B|-------------------------------------------------|
G|-------------------------------------------------|
D|-------------------------------------------------|
A|-------------------------------------------------|
E|-3-3-3-3-3-3-3-3-3-3-3-3-3-3-3-3-3-3-3-3-3-3-3-3-|

e|-------------------------------------------------------------|
B|-------------------------------------------------------------|
G|-------------------------------------------------------------|
D|-------------------------------------------------------------|
A|-------------------------------------------------------------|
E|-3-3-3-3-3-3-6-6-6-6-6-6-6-6-6-6-6-6-3-3-3-3-3-3-3-3-3-3-3-3-|

e|-------------------------------------------------|
B|-------------------------------------------------|
G|-------------------------------------------------|
D|-------------------------------------------------|
A|-------------------------------------------------|
E|-3-3-3-3-3-3-3-3-3-3-3-3-3-3-3-3-3-3-3-3-3-3-3-3-|

 Guitar Intro (00:42):
e|----------------------------10-10-10\-----------|
B|----------------------------11-11-11\-----------|
G|------------------------------------------------|
D|-----5--\---------------------------------------|
A|-10\-5--\---------10\---------------------------|
E|----------------------3-------------------------|

 Trumpet Solo
 (01:12)     (01:22)              (01:35)   (01:42)     (01:46)
e|-----------|-10-10-10-10-10-10\-|---------|-10-10-10~-|-10-10--10-|
B|-----------|-11-11-11-11-11-11\-|---------|-11-11-11~-|-11-11--11-|
G|-3---------|--------------------|---------|-----------|-----------|
D|-3h5-3-----|--------------------|-5p3---5-|-----------|-----------|
A|-----------|--------------------|---------|-----------|-----------|
E|-----------|--------------------|---------|-----------|-----------|

 (01:53)                        (02:17)   (02:25)
e|-10-10-10---------------------|---------|----------|
B|-11-11-11---11-11-11\---------|---------|----------|
G|------------12-12-12\----3----|-7b5--b7-|----------|
D|-------------------------5--3-|---------|-5b3-b-5--|
A|------------------------------|---------|----------|
E|------------------------------|---------|----------|

 Guitar Solo (02:39) (Slide Guitar):
e|-------3-\1---3------5b6b5-\3-------------------------3-\1---3-/10-\-|
B|------------3-----3-----------5-6-b-8----------------------3---------|
G|-5-b-7---------------------------------3\2--0----5-b7----------------|
D|---------------------------------------------------------------------|
A|---------------------------------------------------------------------|
E|---------------------------------------------------------------------|

e|-/8------------------------------------------------------------------------|
B|----11p10-8---------11-----/17--\15\13-------------------------------------|
G|--------------10\12----12--------------12----------------------------------|
D|--------------------------------------------12\10\8/12--/15--/14--14\10----|
A|------------------------------------------------------------------------13-|
E|---------------------------------------------------------------------------|

e|------------------------------------------------15---15\----------------|
B|--------------------------------------------/15-----------2-/-11-\10--8-|
G|---------12--12\10----12----/15\14--10/14-------------------------------|
D|-10-/-12-----------12---------------------------------------------------|
A|------------------------------------------------------------------------|
E|------------------------------------------------------------------------|

e|----------------------------------------3-------------------|
B|-8\6--6\----------------------3-----1/3---------------------|
G|---------7-\-5--3--2---0--2/3---3-----------3\2-0-----------|
D|---------------------------------------------------3-3/5----|
A|----------------------------------------------------------5-|
E|------------------------------------------------------------|

e|--------15-\13----15-------18-15-\13----15--15\13----/18-15-15\13----15-|
B|-3-/-1---------15----15/18-----------15-----------15--------------15----|
G|------------------------------------------------------------------------|
D|------------------------------------------------------------------------|
A|------------------------------------------------------------------------|
E|------------------------------------------------------------------------|

e|-15\13----13/15------13\10/22-\--/20--20\18--18\17-17------15--15\13----15-|
B|-------15--------13------------------------------------/15-----------15----|
G|---------------------------------------------------------------------------|
D|---------------------------------------------------------------------------|
A|---------------------------------------------------------------------------|
E|---------------------------------------------------------------------------|

e|-----27--27\25----27--27\25----29-30-29-30--30\29-27--27\25----25-27-|
B|-3/------------27-----------27------------------------------27-------|
G|---------------------------------------------------------------------|
D|---------------------------------------------------------------------|
A|---------------------------------------------------------------------|
E|---------------------------------------------------------------------|

e|-22-20-22--22~-22~-22--22\---------27---27--27\25-25--25----25/27-|
B|---------------------------20--/27-----------------------17-------|
G|------------------------------------------------------------------|
D|------------------------------------------------------------------|
A|------------------------------------------------------------------|
E|------------------------------------------------------------------|

e|-/30-27\25----27--/30-27--27\--/30-27--27\--27\25----27--/30--29----------|
B|-----------27-------------------------------------27--------------27--25\-|
G|--------------------------------------------------------------------------|
D|--------------------------------------------------------------------------|
A|--------------------------------------------------------------------------|
E|--------------------------------------------------------------------------|

e|-22--20--/22--17\-/15--------------------13-15-18--17--15--13-|
B|----------------------15\13----15--13/15----------------------|
G|----------------------------15--------------------------------|
D|--------------------------------------------------------------|
A|--------------------------------------------------------------|
E|--------------------------------------------------------------|

e|-15----------------------|
B|-----15\13--------15\3---|
G|-----------15\12---------|
D|-------------------------|
A|-------------------------|
E|-------------------------|

Exit Slide Guitar

                           *Part VII (04:41-06:05)*
                           (Waters, Gilmour, Wright)

 (04:39)
e|---------------------------------------------------------------------|
B|----------------------------------------6--8b9--8--------------------|
G|-5b7---7b5p3-5b7----6b5-3-5-6--7---7-8------------8--7--8b10-8p7p5---|
D|---------------------------------------------------------------------|
A|---------------------------------------------------------------------|
E|---------------------------------------------------------------------|

e|-------------------|
B|-------------------|
G|-------------------|
D|-------------------|
A|-------------------|
E|-2b3b2-1---1-2-----|

 (From "Nobody knows where you are, how near or how far"
e|-----------------6-------------------|
B|----------8-8--8-----------3-3--3-3--|
G|----------7-7--7-----------3-3--3-3--|
D|---------------------------3-3--3-3--|
A|-------------------------------------|
E|-------------------------------------|

 (From "Shine on you crazy diamond")
e|-------------------------------------------------------|
B|-------------------------------------------------------|
G|-8----7----5----3--------------------------------------|
D|-8----7----5----3----3---------------------------------|
A|-6----5----3----1----3---------------------------------|
E|---------------------1-----3b5--3b5b3-1--3b5b3-1---1-2-|

 (From "Pile on many more layers, and I'll be joining you there")
e|-------------------------------------------------|
B|---------------------------------------3-3--3-3--|
G|--------------3-5b7-7-7b5p3-3----------3-3--3-3--|
D|------------5--------------------------3-3--3-3--|
A|-----------------------------------1-------------|
E|-------------------------------------------------|

 (From "Shine on you crazy diamond")
e|-13-13-13--10--8\-1-----|
B|-13-13-13--10--8\-1-----|
G|------------------------|
D|------------------------|
A|------------------------|
E|------------------------|

 (From "And we'll bask in the shadows...")
e|----------------------------------------------------|
B|----------------------------------------------------|
G|---3-5-5b7b5-----3-5-5b7b5-----3-5-5b7b5------------|
D|-5-------------4-------------3-------------2--------|
A|------------------------------------------------3h5-|
E|----------------------------------------------------|

 (From "Come on you boy child, 
 you winner and loser, 
 come on you miner for truth and delusion, 
 and shine!")
e|--------------------0-----------1-1-------1-----2-----|
B|-----4-4----------1---1---------3-3---------3-----3---|
G|-----5-5--------3-------3-----3-3-3-----------------3-|
D|-1/5------5---2-------------3-------3---0-------------|
A|------------------------------------------------------|
E|------------------------------------------------------|


                           *Part VIII (06:05-09:05)*
                           (Gilmour, Wright, Waters)

e|---------------10------------0------0-----|
B|-11-----13------------13------------------|
G|---10-----10-----10-----10----10-----10---|
D|-----12-----12-----12-----12----12-----12-|
A|------------------------------------------|
E|------------------------------------------|

e|---------------10------------0------0-----|
B|-11-----13------------13------------------|
G|---10-----10-----10-----10----10-----10---|
D|-----12-----12-----12-----12----12-----12-|
A|------------------------------------------|
E|------------------------------------------|


e|---------------10------------0------0-----|
B|-11-----13------------13------------------|
G|---10-----10-----10-----10----10-----10---|
D|-----12-----12-----12-----12----12-----12-|
A|------------------------------------------|
E|------------------------------------------|


e|---------------10------------0------0-----|
B|-11-----13------------13------------------|
G|---10-----10-----10-----10----10-----10---|
D|-----12-----12-----12-----12----12-----12-|
A|------------------------------------------|
E|------------------------------------------|

e|-------------12har--------13--15-----|
B|----------------------------------15-|
G|-19har-12har-------------------------|
D|-------------------------------------|
A|-------------------------------------|
E|-------------------------------------|

 Keyboard Solo (Done in G Minor)
 During Solo:
e|---------------------------|
B|-15-x-15-x-15-x-15-x-17-17-|
G|-15-x-15-x-15-x-15-x-17-17-|
D|---------------------------|
A|---------------------------|
E|---------------------------|repeat 7x

e|---------------------15-15-|
B|-15-x-15-x-15-x-15-x-15-15-|
G|-15-x-15-x-15-x-15-x-------|
D|---------------------------|
A|---------------------------|
E|---------------------------|

e|-18-18--18-18--18-18--18-18--20-20--20-20--20-20--20-20-|
B|-18-18--18-18--18-18--18-18--20-20--20-20--20-20--20-20-|
G|--------------------------------------------------------|
D|--------------------------------------------------------|
A|--------------------------------------------------------|
E|--------------------------------------------------------|

e|-----------------------------|
B|-15-15-15-15-15-15-15--17-17-|
G|-15-15-15-15-15-15-15--17-17-|
D|-----------------------------|
A|-----------------------------|
E|-----------------------------|

e|-----------------------------|
B|-15-15-15-15-15-15-15--17-17-|
G|-15-15-15-15-15-15-15--17-17-|
D|-----------------------------|
A|-----------------------------|
E|-----------------------------|

e|-3-x-3-x-3-x-3-x-5-5-|
B|-3-x-3-x-3-x-3-x-5-5-|
G|-3-x-3-x-3-x-3-x-5-5-|
D|---------------------|
A|---------------------|
E|---------------------|

e|-3-x-3-x-3-x-3-x-5-5--3-|
B|-3-x-3-x-3-x-3-x-5-5--3-|
G|-3-x-3-x-3-x-3-x-5-5--3-|
D|------------------------|
A|------------------------|
E|------------------------|


                           *Part IX (09:05-12:31)*
                                  (Wright)

 Trumpet Tab for Guitar:
e|-------------------------------------------------------------8-------|
B|-8----11----------8--9-------9--11--9------9p8----------8-------8----|
G|-------------10-----------------------10-------10------------------8-|
D|--------------------------10----------------------10-----------------|
A|---------------------------------------------------------------------|
E|---------------------------------------------------------------------|

e|------------------------------------------10----10-8------------9--8-------|
B|-----8---8------------7---7--10-------10-------------11p10-11--------11----|
G|-10--------10-8\7h8--------------7--------------------------------------10-|
D|---------------------------------------------------------------------------|
A|---------------------------------------------------------------------------|
E|---------------------------------------------------------------------------|

e|-8---------------------6-8---------------8h10-11-------8h108-8-11-|
B|----11--9p8-8h9-----9------9p8--6-----8-------------8-------------|
G|------------------------------------------------------------------|
D|------------------------------------------------------------------|
A|------------------------------------------------------------------|
E|------------------------------------------------------------------|

e|-10----------------------------8-----10---8-------------8\-9---8p6---|
B|------10p8--7---10---10h11-10----------------11p10p8---------------6-|
G|---------------------------------------------------------------------|
D|---------------------------------------------------------------------|
A|---------------------------------------------------------------------|
E|---------------------------------------------------------------------|

e|-8----13----14b16-13----16p13-------------11----13p11--11---------13p11-|
B|---------13-------------------13--------------------------13------------|
G|---------------------------------13----12----------------------12-------|
D|------------------------------------------------------------------------|
A|------------------------------------------------------------------------|
E|------------------------------------------------------------------------|

e|-15-----------15----------------------14--------14---------------14----|
B|----16p15--------16p15-------------------15--------15---15b17-15----15-|
G|----------17-----------17-----14---14-------14-------------------------|
D|-----------------------------------------------------------------------|
A|-----------------------------------------------------------------------|
E|-----------------------------------------------------------------------|

               G
e|-------------------------------|
B|-13--11--10--------------------|
G|-------------12----------------|
D|-------------------------------|
A|-------------------------------|
E|-------------------------------|



************************************

| b  Bend
| p  Pull-off
| \  Slide down
| /  Slide up
| ~  Vibrato
| h  Hammer-on
| x  Dead note
| .  palm mute

************************************

            
            
Suggest correction
Creating personal tab
Creating personal tab
You can edit any tab online and save it as your Personal.

You can edit, replace or remove any tab part or add personal notes – all changes will be seen only by you.

Personal tabs can be accessed anytime from any device, even offline.
Learn more »
comments
print report bad tab
27 comments total. Showing first comments. show 3 bad comments
guest
You may want to rate the tab now too:
select rating
Wanna post a correction for this tab? Suggest correction