Oops, an error
Loading. Please wait.
We have an official Wish You Were Here tab made by UG professional guitarists. Check out the tab »
×
22,087 views 21 this week
2 commentsread comments
1 2 3 4 5
x 10
add to favorites
×
Save as Personal and add changes to this tab that will be seen only by you. Learn more ›
×
You can save this tab as Personal to edit and correct it or add notes. All changes will be seen only by you. Learn more »
launch autoscroll
font size
0
reset
guitar tuner
backing track
0:00
0:00
edit
Autoscroll
slow
fast
+/-
esc
set tempo
stop
Difficulty
The Bass Begins In The Minute 1:47, when the drums starts and begins the verse two

Verse Two

G|---------|---------|---------|---------|---------|
D|---------|---------|---------|---------|---------|
A|---------|-3-3-3-3-|-5-5-5-5-|---------|---------|
E|-3-3-3-3-|---------|---------|-5-5-5-5-|-3-3-3-3-|

G|---------|---------|---------|---------|
D|---------|---------|---------|---------|
A|-5-5-5-5-|-3-3-3-3-|---------|---------|
E|---------|---------|-5-5-5-5-|-3-3-3-3-|


Bridge

G|-------|-------|-------|-------|
D|-------|-------|-------|-------|
A|-------|-------|-------|-------|
E|-0-0-0-|-3-3-3-|-0-0-0-|-3-3-3-|

G|-------|-------|-------|-------|
D|-------|-------|-------|-------|
A|-------|-------|-------|-------|
E|-0-0-0-|-5-5-5-|-0-0-0-|-5-5-5-|

Verse Three

G|---------|---------|---------|---------|
D|---------|---------|---------|---------|
A|-3-3-3-3-|-5-5-5-5-|---------|---------|
E|---------|---------|-5-5-5-5-|-3-3-3-3-|

G|---------|---------|---------|---------|
D|---------|---------|---------|---------|
A|-5-5-5-5-|-3-3-3-3-|---------|---------|
E|---------|---------|-5-5-5-5-|-3-3-3-3-|

Bridge

G|-------|-------|-------|-------|
D|-------|-------|-------|-------|
A|-------|-------|-------|-------|
E|-0-0-0-|-3-3-3-|-0-0-0-|-3-3-3-|

G|-------|-------|-------|-------|------------|
D|-------|-------|-------|-------|------------|
A|-------|-------|-------|-------|------------|
E|-0-0-0-|-5-5-5-|-0-0-0-|-5-5-5-|-3-3-3-3-3-3|

Enjoy!

            
            
Suggest correction
Creating personal tab
Creating personal tab
You can edit any tab online and save it as your Personal.

You can edit, replace or remove any tab part or add personal notes – all changes will be seen only by you.

Personal tabs can be accessed anytime from any device, even offline.
Learn more »
comments
print report bad tab
2 comments total.
0 reply
StingerDawg 74 Nov 16, 2015 04:01 PM

This appears to be a tab for another song

+1 reply
StingerDawg 74 Nov 16, 2015 04:03 PM

It is a simple version or a tab for another song...not Pink Floyd's Wish You Were Here. If this is an oversimplified version, the writer should have made that known.

guest
Wanna post a correction for this tab? Suggest correction