Oops, an error
Loading. Please wait.

Please Please Please Acoustic tab

46 views 1 this week
no commentswrite comment
1 2 3 4 5
3 more votes to show rating
add to favorites
×
Save as Personal and add changes to this tab that will be seen only by you. Learn more ›
×
You can save this tab as Personal to edit and correct it or add notes. All changes will be seen only by you. Learn more »
launch autoscroll
font size
0
reset
how to read this tab
guitar tuner
edit
Autoscroll
slow
fast
+/-
esc
set tempo
stop
Author
[Intro] 

e|---------------------------------------------------------------------------|
B|---4-s-2-------------------------------------------------------------------|
G|---1-s-1----3-s------------------------------------------------------------|
D|------------2-s------------------------------------------------------------| x4
A|----------4----------------------------------------------------------------|
E|-0------0------------------------------------------------------------------|


[Verse]

First time through this riff, play this:

e|---------------------------------------------------------------------------|
B|---4-s-2-------------------------------------------------------------------|
G|---1-s-1----3-s-3----------------------------------------------------------|
D|------------2-s-2----4-s-4-----6-s-6---------------------------------------|
A|----------4----------4-s-4-----6-s-6---------------------------------------|
E|-0------0---------5--------7-----------------------------------------------|

Every other time through, you change the last B shape: 
e|----------|

B|----------|
G|----------|
D|----7-s-7-|
A|----6-s-6-|
E|-7--------|


[Pre-Chorus] 

(the last time, omit the second half)

e|---------------------------------------------------------------------------|
B|---2-s-2----4-s-4----------------------------------------------------------|
G|---1-s-1----1-s-1----------------------------------------------------------|
D|---------------------------------------------------------------------------| x4
A|---------------------------------------------------------------------------|
E|-0--------0----------------------------------------------------------------|


[Chorus]

Same as verse, with the addition of some horn parts, which I put in order below. The song
is in the key of E, so feel free to freestyle with those scales. 

Horn parts:

e|--------------------------------------------------------------------------------x---|
B|--------------------------------------------------------------------------------9---|
G|-----------------6-6-6-4---------------------6-6-6-4---------4------------------8---|
D|---2-4-------------------6-6-4-----------------------6-6-4-----6------------6-9-9---|
A|--4----------------------------7-4-7-----------------------7-------------7-9----x---|
E|--------------------------------------------------------------------------------0---|

That's about it! you can figure out the rest of the song from there.
There's one variation on the chord structure during the bridge, first appearing around 1:40:

e|---------------------------------------------------------------------------|
B|---3-s-3----3-s-3----------------------------------------------------------|
G|---4-s-4----4-s-4----------------------------------------------------------|
D|---------------------------------------------------------------------------|
A|---------------------------------------------------------------------------|
E|-0--------0----------------------------------------------------------------|

And one more horn part:
e|---------------------|
B|---------------------|
G|--9-8-6-----9-8-6----|
D|--------6--------6---|
A|---------------------|
E|---------------------|



************************************

| x  Dead note
| s  Slap

************************************

            
            
Suggest correction
Creating personal tab
Creating personal tab
You can edit any tab online and save it as your Personal.

You can edit, replace or remove any tab part or add personal notes – all changes will be seen only by you.

Personal tabs can be accessed anytime from any device, even offline.
Learn more »
Give kudos to tab author, rate the tab!
1 2 3 4 5
comments
print report bad tab
guest
You may want to rate the tab now too:
select rating
Wanna post a correction for this tab? Suggest correction