Oops, an error
Loading. Please wait.

Fase 1 tab

8,169 views 12 this week
no commentswrite comment
1 2 3 4 5
x 5
add to favorites
×
Save as Personal and add changes to this tab that will be seen only by you. Learn more ›
×
You can save this tab as Personal to edit and correct it or add notes. All changes will be seen only by you. Learn more »
launch autoscroll
font size
0
reset
how to read this tab
guitar tuner
edit
Autoscroll
slow
fast
+/-
esc
set tempo
stop
Author
The h7's from 2:02 to 2:28 are rest strokes.
This won't sound perfect because I couldn't tab the lift offs, ticks, etc. so you will 
to figure out right hand motions.

http://candyrat.com/artists/PinoForastiere/

CGDFCE
Q=152

E|---------------0----------|---------------0----------|  a
C|---------0---------0------|---------0---------0------|  m
F|(6)----6---6---------6----|-------6---6---------6----|  i
D|(7)--7-------7---7-----7--|-----7-------7---7-----7--|
G|---5----------------------|---5----------------------|
C|-5------------------------|-5------------------------|  p

|---------------0-----------|---------------0-------7--|
|---------0---------0-------|---------0---------0------|
|-------6---6---------6-----|-------6---6--------------|
|-----7-------7---7-----7---|-----7-------7---7---7----|
|---0-----------------------|---0----------------------|
|-0-------------------------|-0------------------------|

|---------------7---0---5---|---------------5----------|
|---------0-----------------|---------5---------5------|
|-------6---6---------------|-------6---6-----------7--|
|-----7-------7---7---------|-----7-------7---7---7----|
|---5-----------------------|---5----------------------|
|-5-------------------------|-5------------------------|

|---------------0-----------|---------------0----------|
|---------7---------7-------|---------7---------7---7--|
|-------6---6---------6-----|-------6---6--------------|
|-----7-------7---7-----7---|-----7-------7---7---7----|
|---0-----------------------|---0----------------------|
|-0-------------------------|-0------------------------|

|---------------0-----------|---------------0----------|
|---------7---------7-------|---------7---------7---7--|
|-------6---6---------6-----|-------6---6--------------|
|-----7-------7---7-----7---|-----7-------7---7---7----|
|---0-----------------------|---0----------------------|
|-0-------------------------|-0------------------------|

|---------------------------|---------------5----------|
|---------------7-------5---|---------5---------5---4--|
|-------6---6-------6-------|-------6---6--------------|
|-----7---7---7---7---7-----|-----7-------7---7---7----|
|---5-----------------------|---5----------------------|
|-5-------------------------|-5------------------------|

|---------------0-----------|---------------0----------|
|---------4---------4-------|---------4---------4---0--|
|-------6---6---------6-----|-------6---6--------------|
|-----7-------7---7-----7---|-----7-------7---7---7----|
|---0-----------------------|---0----------------------|
|-0-------------------------|-0------------------------|


|---------------0-----------|---------------0----------|
|---------0---------0-------|---------0---------0------|
|-------6---6---------6-----|-------6---6---------6----|
|-----7-------7---7-----7---|-----7-------7---7-----7--|
|---5-----------------------|---5----------------------|
|-5-------------------------|-5------------------------|

|---------------0-----------|---------------0----------|
|---------0---------0-------|---------0---------0---7--|
|-------6---6---------6-----|-------7---6--------------|
|-----7-------7---7-----7---|-----6-------7---7---0----|
|---0-----------------------|---0----------------------|
|-0-------------------------|-0------------------------|

|---------------------------|--------------------------|
|-------7\--5-------5\--4---|-------4\--2-------2---0--|
|-----9----(7)----7---------|-----0-----------0--------|
|---0-----0-----0-----0-----|---0-----0-----0-----0----|
|-0-----------0-------------|-0-----------0------------|
|---------------------------|--------------------------|

|---------------0-----------|---------------0----------|
|---------0---------0-------|---------0----------0-----|
|-------0---0---------0-----|-------0---0-----------0--|
|-----2-------2---2-----2---|-----2-------2---2h(2)----|
|---2-----------------------|---2---------------(2)----|
|-2-------------------------|-2-----------------(2)----|

|---------------0-----------|---------------0-------12-|
|---------0---------0-------|---------0---------0------|
|-------6---6---------6-----|-------6---6---------0----|
|-----7-------7---7-----7---|-----7-------7---0--------|
|---5-----------------------|---5----------------------|
|-5-------------------------|-5------------------------|

|----------12----12---------12---|-------12---12-------12---12-|
|--------0----------------0------|-----9-------------9---------|
|(11)-11------11-------11--------|---9------9------9------9----|
|-10----------------10-----------|-9-------------9-------------|
|--------------------------------|-----------------------------|
|--------------------------------|-----------------------------|

|-------12---12-------10\---8--|-------8---8-------8------|
|-----0-------------0----------|-----0-----------0-----8--|
|---0------0------0------------|---8-----8-----8-----6----|
|-8-------------8--------------|-6-----------6------------|
|------------------------------|--------------------------|
|------------------------------|--------------------------|

|--------------------------|----------------0----------|
|-------8-----------8---9--|----------9---------9------|
|-----0-----0-----0--------|--------0---0---------0----|
|---8-----8-----8-----0----|--(9)-9-------9---9-----9--|
|-6-----------6------------|---7-----------------------|
|--------------------------|-7-------------------------|

|---------------0-----------|---------------0----------|
|---------9---------0-------|---------0---------0------|
|-------0---0-----------0---|-------6---6---------6----|
|-----9-------9---9---7-----|-----7-------7---7-----7--|
|---7-----------------------|---5----------------------|
|-7-------------------------|-5------------------------|

|---------------0-----------|---------------0----------|
|---------0---------0-------|---------0---------0------|
|-------6---6---------6-----|-------6---6---------6----|
|-----7-------7---7-----7---|-----7-------7---7-----7--|
|---5-----------------------|---0----------------------|
|-5-------------------------|-0------------------------|

|---------------0-------7---|---------------7-------5--|
|---------0---------0-------|--------------------------|
|-------6---6---------6-----|-------6---6-------6------|
|-----7-------7---7---------|-----7---7---7---7---7----|
|---0-----------------------|---0----------------------|
|-0-------------------------|-0------------------------|

|---------------5-----------|---------------0----------|
|-----------------------7---|--------------------------|
|-------6---6-------6-------|-------6---6-------6---6--|
|-----7---7---7---7---7-----|-----7---7---7---7---7----|
|---0-----------------------|---0----------------------|
|-0-------------------------|-0------------------------|

|---------------------------|--------------------------|
|---------------7-------7---|---------------7-------5--|
|-------6---6-------6-------|-------6---6-------6------|
|-----7---7---7---7---7-----|-----7---7---7---7---7----|
|---0-----------------------|---5----------------------|
|-0-------------------------|-5------------------------|

|---------------------------|---------------0----------|
|---------------5-------4---|---------4---------4------|
|-------6---6-------6-------|-------6---6---------6----|
|-----7---7---7---7---7-----|-----7-------7---7-----7--|
|---5-----------------------|---0----------------------|
|-5-------------------------|-0------------------------|

|---------------0-----------|---------------0----------|
|---------4---------0---7---|---------0---------0------|
|-------6---6---------------|-------6---6---------6----|
|-----7-------7---7---0-----|-----7-------7---7-----7--|
|---0-----------------------|---5----------------------|
|-0-------------------------|-5------------------------|

|---------------0-----------|---------------0----------|
|---------0---------0-------|---------0---------0------|
|-------6---6---------6-----|-------6---6---------6----|
|-----7-------7---7-----7---|-----7-------7---7-----7--|
|---5-----------------------|---0----------------------|
|-5-------------------------|-0------------------------|

|---------------0-----------|---------------------------|
|---------0---------0---7---|-------7\---5-------5\---4-|
|-------6---6---------------|-----9------------7--------|
|-----7-------7---7---0-----|---0------0-----0------0---|
|---0-----------------------|-0------------0------------|
|-0-------------------------|---------------------------|

|---------------------------|-------------------0-------|
|-------4-----------4\---2--|-------2---------------0---|
|-----0-----0-----0---------|-----4-----4-----4---------|
|---5-----5-----5------5----|---3-----3-----3-----3-----|
|-0-----------0-------------|-0-----------0-------------|
|---------------------------|---------------------------|

|---------------0-----------|---------------0-----------|
|---------0---------0-------|---------0----------0------|
|-------0---0---------0-----|-------0---0---------------|
|-----2-------2---2-----2---|-----2-------2---2h(2)/--0-|
|---2-----------------------|---2---------------(2)/----|
|-2-------------------------|-2-----------------(2)/----|

|---------------0-----------|---------------0-----------|
|---------0---------0-------|---------0---------0-------|
|-------6---6---------6-----|-------6---6-----------0---|
|-----7-------7---7-----7---|-----7-------7---7---0-----|
|---5-----------------------|---5-----------------------|
|-5-------------------------|-5-------------------------|

|------------------------------|-------------------------0--|
|------------------------h7h9--|---------------------7h9----|
|-----0-h7-0------0-h7h9-------|-----0-h7-0------7h9--------|
|h7h9----0---h7h9----0----0----|h7h9----0---h7h9---0---0----|
|-0-----------0----------------|-0-----------0--------------|
|------------------------------|----------------------------|

|------------------------------|-------------------------7\-|
|------------------------h7h9--|---------------------7h9----|
|-----0-h7-0------0-h7h9-------|-----0-h7-0------7h9--------|
|h7h9----0---h7h9----0----0----|h7h9----0---h7h9---0---0----|
|-0-----------0----------------|-0-----------0--------------|
|------------------------------|----------------------------|

|(5)---------------------------|------------------------------|
|-------h7---------h7----------|h7-0--------h7-0--------h7----|
|h7---0-----h7---0------h7-----|-----0-h7--------0-h7-0----0--|
|---0-----0----0------0----0---|---0------0----0--------------|
|-0----------0-----------0-----|--------0-----------0---------|
|------------------------------|------------------------------|

|------------------------------|-------------------------0----|
|------------------------h7h9--|---------------------7h9------|
|-----0-h7-0------0-h7h9-------|-----0-h7-0------7h9----------|
|h7h9----0---h7h9----0----0----|h7h9--------h7h9---0---0------|
|-0-----------0----------------|-0-----------0----------------|
|------------------------------|------------------------------|

|------------------------------|-------------------------7\---|
|------------------------h7h9--|---------------------7h9------|
|-----0-h7-0------0-h7h9-------|-----0-h7-0------7h9----------|
|h7h9----0---h7h9----0----0----|h7h9--------h7h9---0---0------|
|-0-----------0----------------|-0-----------0----------------|
|------------------------------|------------------------------|

|------------------------------|------------------------------|
|-------h7----------h7---------|h7-0--------h7-0--------0-----|
|h7---0------h7---0------h7----|-----0-h7--------0-h7---------|
|---0------0----0------0----0--|---0------0----0------0---0---|
|-0-----------0-----------0----|--------0-----------0---------|
|------------------------------|------------------------------|

|---------------0-----------|---------------0-------15--|
|---------0---------0-------|---------0---------0-------|
|-------0---0---------0-----|-------0---0---------0-----|
|-----5-------5---5-----5---|-----5-------5---0---------|
|---5-----------------------|---5-----------------------|
|-5-------------------------|-5-------------------------|

|--------15---15--------15----15--|---------15----15---------15----15-|
|------0--------------0-----------|-------0----------------0----------|
|----0------0-------0------0-(12)-|----12------12-------12------12----|
|-12-------------12---------------|-14---------------14---------------|
|---------------------------------|-----------------------------------|
|---------------------------------|-----------------------------------|

|--------15---15--------15----15--|---------15----15---------15\----12--|
|------0--------------0-----------|-------0----------------0------------|
|----0------0-------0------0------|----12------12-------12------0-------|
|-12-------------12---------------|-14---------------14-----------------|
|---------------------------------|-------------------------------------|
|---------------------------------|-------------------------------------|

|---------12----12---------12----12-|-------12---12-------12---12-|
|-------0----------------0----------|-----9-------------9---------|
|----11------11-------11------11----|---9------9------9------9----|
|-10---------------10---------------|-9-------------9-------------|
|-----------------------------------|-----------------------------|
|-----------------------------------|-----------------------------|

|-------12---12-------10\---8--|-------8---8-------8------|
|-----0-------------0----------|-----0-----------0-----8--|
|---0------0------0-------0----|---8-----8-----8----------|
|-8-------------8--------------|-6-----------6-------6----|
|------------------------------|--------------------------|
|------------------------------|--------------------------|

|----------------------------|---------------0---------|
|-------8-----------8---9----|---------9---------9-----|
|-----0-----0-----0----------|-------0---0---------0---|
|---8-----8-----8-----0------|-----9-------9---9-----9-|
|-6-----------6--------------|---7---------------------|
|----------------------------|-7-----------------------|

|---------------0------------|---------------0---------|
|---------9---------0--------|---------0---------0-----|
|-------0---0-----------0----|-------6---6---------6---|
|-----9-------9---9---7------|-----7-------7---7-----7-|
|---7------------------------|---5---------------------|
|-7--------------------------|-5-----------------------|

|---------------0------------|---------------0---------|
|---------0---------0--------|---------0---------0-----|
|-------6---6---------6------|-------6---6---------6---|
|-----7-------7---7-----7----|-----7-------7---7-----7-|
|---5------------------------|---0---------------------|
|-5--------------------------|-0-----------------------|

|---------------0------------|---------------0---------|
|---------0---------0--------|---------0---------0-----|
|-------6---6---------6------|-------6---6---------6---|
|-----7-------7---7-----7----|-----7-------7---7-----7-|
|---0------------------------|---5---------------------|
|-0--------------------------|-5-----------------------|

|---------------0------------|---------------0---------|
|---------0---------0--------|---------0---------0-----|
|-------6---6---------0------|-------7---7---------7---|
|-----7-------7---7-----0----|-----9-------9---9-----9-|
|---5------------------------|---0---------------------|
|-5--------------------------|-0-----------------------|

|---------------0------------|---------------0---------|
|---------0---------0--------|---------0---------0-----|
|-------9---7---------7------|-------7---7---------7---|
|-----7-------9---9-----9----|-----9-------9---9-----9-|
|---0------------------------|---0---------------------|
|-0--------------------------|-0-----------------------|

|---------------0------------|-------------------------|
|---------0-------0----------|-------------------------|
|-------7---7-------7--------|-------------------------|
|-----9-------9-------9------|-------------------------|
|---0------------------------|-------------------------|
|-0--------------------------|-------------------------|

            
            
Suggest correction
Creating personal tab
Creating personal tab
You can edit any tab online and save it as your Personal.

You can edit, replace or remove any tab part or add personal notes – all changes will be seen only by you.

Personal tabs can be accessed anytime from any device, even offline.
Learn more »
comments
print report bad tab
guest
You may want to rate the tab now too:
select rating
Wanna post a correction for this tab? Suggest correction