Oops, an error
Loading. Please wait.

Fireball bass

version 3
version 3

Whole song

4,481 views 15 this week
2 commentsread comments
1 2 3 4 5
x 4
add to favorites
×
Save as Personal and add changes to this tab that will be seen only by you. Learn more ›
×
You can save this tab as Personal to edit and correct it or add notes. All changes will be seen only by you. Learn more »
launch autoscroll
font size
0
reset
guitar tuner
edit
Autoscroll
slow
fast
+/-
esc
set tempo
stop
Author
Difficulty
-------------------------------------------------------------------------------
                             FIREBALL - Pitbull
-------------------------------------------------------------------------------
Tabbed by: THWIT

Tuning: Standard

Intro: No bass (Eventually, see bottom for another solution)

Pre-chorus:

G|-------8h10-----8-------8h10-----8-------8h10-----8------------------------|
D|----10-------10------10-------10------10-------10--------------------------|
A|-8----------------8----------------8---------------------------------------|
E|---------------------------------------------------------------------------|


Chorus/Verse:

Basic:
G|---------------------------------------------------------------------------|
D|------1h3----1------1h3----1------1h3----1------1h3----1-------------------|
A|----3------3------3------3------3------3------3------3---------------------|
E|-1-------------1-------------1-------------1-------------------------------|

More advanced:
If you want to simulate the flanger effect of the bass guitar in this song, play:

G|---------------------------------------------------------------------------|
D|--------1h3----1--------1h3----1--------1h3----1--------1h3----1-----------|
A|----1/3------3------1/3------3------1/3------3------1/3------3-------------|
E|-1---------------1---------------1---------------1-------------------------|

Every time the bass (chorus) stops, your last note must be:
G|---------------------------------------------------------------------------|
D|--------1h3----1-3---------------------------------------------------------|
A|----1/3------3-------------------------------------------------------------|
E|-1-------------------------------------------------------------------------|


That's it, the song isn't so hard on the bass guitar.

Bonus: If you want to play along with the trumpets, play:
G|------------------------------------------------------------------------17~|
D|-15~--17-13-15---------17-13-15---------15~--17-13-15--------17-13-15------|
A|---------------1515------------1515-------------------1515------------15---|
E|---------------------------------------------------------------------------|

So, for the parts that don't have a bass guitar, you could(!!) play (with the rhythm of the guitar): 
G|---------------------------------------------------------------------------|
D|-3~---3-3-11----3-3-11-----3~---3-3-11----3-3-11--------------------------.| (1-1, not 11)
A|--------------------------------------------------------------------------.| 
E|---------------------------------------------------------------------------|


| /  slide up
| \  slide down
| h  hammer-on
| p  pull-off
| ~  vibrato
| +  harmonic
| x  Mute note
===============================================================================

            
            
Suggest correction
Creating personal tab
Creating personal tab
You can edit any tab online and save it as your Personal.

You can edit, replace or remove any tab part or add personal notes – all changes will be seen only by you.

Personal tabs can be accessed anytime from any device, even offline.
Learn more »
comments
print report bad tab
2 comments total.
-1 reply
MattC35 31 Aug 16, 2015 11:37 AM

Lack of accuracy. This guy just rags on other people for no reason and then copies what we wrote. TWHIT is a piece of shit.

0 reply
THWIT 538 Aug 16, 2015 12:47 PM

I'm sorry for being - in your opinion - rude. My whole tab is written by myself, without copying. So far, no one else has been thinking that this tab has a lack of accuracy. If your thinking some things should be more accurate, please come with corrections and improvements. That's also what I did.
Of course, you're free to spit on me, but I'm not the only one who thinks your tab could have been better, so maybe I'm not completely "just raging on you for no reason".
So, once more, I feel sorry if you're feeling insulted, but it is no reason to call me a piece of shit and to say that my tab is bad.

guest
You may want to rate the tab now too:
select rating
Wanna post a correction for this tab? Suggest correction