Oops, an error
Loading. Please wait.

Mascara tab

version 1
version 1

Whole song

Interactive

by Pitty
587 views 1 this week
2 commentsread comments
1 2 3 4 5
3 more votes to show rating
add to favorites
×
Save as Personal and add changes to this tab that will be seen only by you. Learn more ›
×
You can save this tab as Personal to edit and correct it or add notes. All changes will be seen only by you. Learn more »
launch autoscroll
font size
0
reset
how to read this tab
guitar tuner
backing track
0:00
0:00
edit
Autoscroll
slow
fast
+/-
esc
set tempo
stop
Author
-----------------------------------------------------------------------------
                             MASCARA - Pitty
-----------------------------------------------------------------------------
Tabbed by: Leonardo Sepúlveda
E-mail:

Tuning: Drop D

INTRO
e|---------------------------------------------------------------------------|
B|---------------------------------------------------------------------------|
G|---------------------------------------------------------------------------|
D|-0--00-3-6-5-3--0--00-6-666--0--00-3-6-5-3--0--0--1-111--------------------|
A|-0--00-3-6-5-3--0--00-6-666--0--00-3-6-5-3--0--0--1-111--------------------|
D|-0--00-3-6-5-3--0--00-6-666--0--00-3-6-5-3--0--0--1-111--------------------|

e|---------------------------------------------------------------------------|
B|---------------------------------------------------------------------------|
G|---------------------------------------------------------------------------|
D|-0--00-3-6-5-3--0--00-6-666--0--00-3-6-5-3--0--0--1-1----------------------|
A|-0--00-3-6-5-3--0--00-6-666--0--00-3-6-5-3--0--0--1-1----------------------|
D|-0--00-3-6-5-3--0--00-6-666--0--00-3-6-5-3--0--0--1-1----------------------|
                                                     . .
VERSE 1 (4X)
e|---------------------------------------------------------------------------|
B|---------------------------------------------------------------------------|
G|---------------------------------------------------------------------------|
D|--3--6-5-3-----------------------------------------------------------------|
A|--3--6-5-3-----------------------------------------------------------------|
D|--3--6-5-3-----------------------------------------------------------------|
    .  . . .

VERSE 2
e|---------------------------------------------------------------------------|
B|---------------------------------------------------------------------------|
G|---------------------------------------------------------------------------|
D|---------------------------------------------------------------------------|
A|--3--6-5-3----------------------3--6-5-3-----------------------------------|
D|--3--6-5-3--0-00-6-666666--0-00-3--6-5-3--0-00-1-111111--0-00--------------|
    .  . . .  . .. . ......  . .. .  . . .  . .. . ......  . ..

e|---------------------------------------------------------------------------|
B|---------------------------------------------------------------------------|
G|---------------------------------------------------------------------------|
D|---------------------------------------------------------------------------|
A|--3--6-5-3----------------------3--6-5-3-----------------------------------|
D|--3--6-5-3--0-00-6-666666--0-00-3--6-5-3--0-00-1-111111--------------------|
    .  . . .  . ..   ......  .. . .  . . .  . .. . ......

PRE-CHORUS (4x)
e|---------------------------------------------------------------------------|
B|---------------------------------------------------------------------------|
G|---------------------------------------------------------------------------|
D|--0---1-0------------------------------------------------------------------|
A|--0---1-0------------------------------------------------------------------|
D|--0---1-0------------------------------------------------------------------|
           .

CHORUS (2x)
e|---------------------------------------------------------------------------|
B|-3--3--3--3-3-3--6--6--6--6-6-6--8--8--8--8-8-8--11-11-11-111111-----------|
G|-2--2--2--2-3-2--5--5--5--5-5-5--7--7--7--7-7-7--10-10-10-101010-----------|
D|-0--0--0--0-0-0--3--3--3--3-3-3--5--5--5--5-5-5--8--8--8--8-8-8------------|
A|-0--0--0--0-0-0--3--3--3--3-3-3--5--5--5--5-5-5--8--8--8--8-8-8------------|
D|-0--0--0--0-0-0--3--3--3--3-3-3--5--5--5--5-5-5--8--8--8--8-8-8------------|

INTRO (Just the 2nd part)
e|---------------------------------------------------------------------------|
B|---------------------------------------------------------------------------|
G|---------------------------------------------------------------------------|
D|-0--00-3-6-5-3--0--00-6-666--0--00-3-6-5-3--0--0--1-1----------------------|
A|-0--00-3-6-5-3--0--00-6-666--0--00-3-6-5-3--0--0--1-1----------------------|
D|-0--00-3-6-5-3--0--00-6-666--0--00-3-6-5-3--0--0--1-1----------------------|
                                                     . .
VERSE 1 (4X)
e|---------------------------------------------------------------------------|
B|---------------------------------------------------------------------------|
G|---------------------------------------------------------------------------|
D|--3--6-5-3-----------------------------------------------------------------|
A|--3--6-5-3-----------------------------------------------------------------|
D|--3--6-5-3-----------------------------------------------------------------|
    .  . . .

PRE-CHORUS (4x)
e|---------------------------------------------------------------------------|
B|---------------------------------------------------------------------------|
G|---------------------------------------------------------------------------|
D|--0---1-0------------------------------------------------------------------|
A|--0---1-0------------------------------------------------------------------|
D|--0---1-0------------------------------------------------------------------|
           .

CHORUS (2x)
e|---------------------------------------------------------------------------|
B|-3--3--3--3-3-3--6--6--6--6-6-6--8--8--8--8-8-8--11-11-11-111111-----------|
G|-2--2--2--2-3-2--5--5--5--5-5-5--7--7--7--7-7-7--10-10-10-101010-----------|
D|-0--0--0--0-0-0--3--3--3--3-3-3--5--5--5--5-5-5--8--8--8--8-8-8------------|
A|-0--0--0--0-0-0--3--3--3--3-3-3--5--5--5--5-5-5--8--8--8--8-8-8------------|
D|-0--0--0--0-0-0--3--3--3--3-3-3--5--5--5--5-5-5--8--8--8--8-8-8------------|

BRIDGE (13X)
e|---------------------------------------------------------------------------|
B|---------------------------------------------------------------------------|
G|---------------------------------------------------------------------------|
D|--6-5-3--6-5-3-0-----------------------------------------------------------|
A|--6-5-3--6-5-3-0-----------------------------------------------------------|
D|--6-5-3--6-5-3-0-----------------------------------------------------------|

e|---------------------------------------------------------------------------|
B|---------------------------------------------------------------------------|
G|---------------------------------------------------------------------------|
D|--0~-----------------------------------------------------------------------|
A|--0~-----------------------------------------------------------------------|
D|--0~-----------------------------------------------------------------------|

OUTRO (5X)
e|--0--0--0--0--0--0--0--0---------------------------------------------------|
B|--3--3--3--3--6--6--5--5---------------------------------------------------|
G|--2--2--2--2--5--5--4--4---------------------------------------------------|
D|---------------------------------------------------------------------------|
A|---------------------------------------------------------------------------|
D|---------------------------------------------------------------------------|

e|--0--0--0--0--0-----0------------------------------------------------------|
B|--3--3--3--3--6-----5------------------------------------------------------|
G|--2--2--2--2--5-----4------------------------------------------------------|
D|---------------------------------------------------------------------------|
A|---------------------------------------------------------------------------|
D|---------------------------------------------------------------------------|

e|---------------------------------------------------------------------------|
B|---------------------------------------------------------------------------|
G|---------------------------------------------------------------------------|
D|---------------------------------------------------------------------------|
A|---------------------------------------------------------------------------|
D|-000000000000000--12\3-----------------------------------------------------|
   ...............

INTRO
e|---------------------------------------------------------------------------|
B|---------------------------------------------------------------------------|
G|---------------------------------------------------------------------------|
D|-0--00-3-6-5-3--0--00-6-666--0--00-3-6-5-3--0--0--1-111--------------------|
A|-0--00-3-6-5-3--0--00-6-666--0--00-3-6-5-3--0--0--1-111--------------------|
D|-0--00-3-6-5-3--0--00-6-666--0--00-3-6-5-3--0--0--1-111--------------------|

e|---------------------------------------------------------------------------|
B|---------------------------------------------------------------------------|
G|---------------------------------------------------------------------------|
D|-0--00-3-6-5-3--0--00-6-666--0--00-3-6-5-3---------------------------------|
A|-0--00-3-6-5-3--0--00-6-666--0--00-3-6-5-3---------------------------------|
D|-0--00-3-6-5-3--0--00-6-666--0--00-3-6-5-3---------------------------------|
                                            .
CHORUS (4x)
e|---------------------------------------------------------------------------|
B|-3--3--3--3-3-3--6--6--6--6-6-6--8--8--8--8-8-8--11-11-11-111111-----------|
G|-2--2--2--2-3-2--5--5--5--5-5-5--7--7--7--7-7-7--10-10-10-101010-----------|
D|-0--0--0--0-0-0--3--3--3--3-3-3--5--5--5--5-5-5--8--8--8--8-8-8------------|
A|-0--0--0--0-0-0--3--3--3--3-3-3--5--5--5--5-5-5--8--8--8--8-8-8------------|
D|-0--0--0--0-0-0--3--3--3--3-3-3--5--5--5--5-5-5--8--8--8--8-8-8------------|

BRIDGE
e|---------------------------------------------------------------------------|
B|---------------------------------------------------------------------------|
G|---------------------------------------------------------------------------|
D|--6-5-3--6-5-3-0-----------------------------------------------------------|
A|--6-5-3--6-5-3-0-----------------------------------------------------------|
D|--6-5-3--6-5-3-0-----------------------------------------------------------|


************************************

| /   slide up
| \   slide down
| .   palm mutting
| h   hammer-on
| p   pull-off
| ~   vibrato
| +   harmonic
| x   Mute note
| b   Bend
| pb  Pre-bend
| br  Bend release
| pbr Pre-bend release
| brb Bend release bend

************************************

            
            
Suggest correction
Creating personal tab
Creating personal tab
You can edit any tab online and save it as your Personal.

You can edit, replace or remove any tab part or add personal notes – all changes will be seen only by you.

Personal tabs can be accessed anytime from any device, even offline.
Learn more »
Give kudos to tab author, rate the tab!
1 2 3 4 5
comments
print report bad tab
2 comments total.
0 reply
Nels0111 33 Nov 25, 2016 11:16 AM, edited at 04:17 pm

Só faltou o final do verso:E|---------5-------------------------------------------|B|-3h6p3h6---6p3h6-------------------------------------|G|-----------------------------------------------------|D|-----------------------------------------------------|A|-----------------------------------------------------|D|-----------------------------------------------------|

0 reply
Nels0111 33 Nov 25, 2016 11:18 AM

E|---------5-------------------------------------------|
B|-3-6-3-6---6-3-6-------------------------------------|
G|-----------------------------------------------------|
D|-----------------------------------------------------|
A|-----------------------------------------------------|
D|-----------------------------------------------------|

guest
You may want to rate the tab now too:
select rating
Wanna post a correction for this tab? Suggest correction