Oops, an error
Loading. Please wait.

Slumped tab

388 views 9 this week
1 commentread comment
1 2 3 4 5
x 4
add to favorites
×
Save as Personal and add changes to this tab that will be seen only by you. Learn more ›
×
You can save this tab as Personal to edit and correct it or add notes. All changes will be seen only by you. Learn more »
launch autoscroll
font size
0
reset
how to read this tab
guitar tuner
edit
Autoscroll
slow
fast
+/-
esc
set tempo
stop
Author
Difficulty
About this tab version
Contains full write out of song. Was this info helpful? Yes No
Tabbed by J

[Verse]

Verse:
Ya darling youre out almost every night
And its getting too hard too hard to fight
oh she said baby dont you worry im alright
Yeah everything is gonna be fine

Verse 2:
Fuck you, you get drunk every night
Ya life aint supposed to be so ripe
She told me baby dont you worry im alright
Everything is gonna be fine

e|-5-5-5-5--3-3-3-3--8--8--8--8--8--8--8--8--|
B|-5-5-5-5--3-3-3-3--8--8--8--8--8--8--8--8--|
G|-5-5-5-5--4-4-4-4--9--9--9--9--9--9--9--9--| x 4
D|-7-7-7-7--5-5-5-5--10-10-10-10-10-10-10-10-|
A|-7-7-7-7--5-5-5-5--10-10-10-10-10-10-10-10-|
E|-5-5-5-5--3-3-3-3--8--8--8--8--8--8--8--8--|

[Chorus]

Chorus:
But you dont know oh you dont know a thing
Oh you dont know anything
She said you dont know you dont know a thing
You dont know anything

e|-5-5-5-5--3-3-3-3--8--8--8--8--8--8--8--8--|
B|-5-5-5-5--3-3-3-3--8--8--8--8--8--8--8--8--|
G|-5-5-5-5--4-4-4-4--9--9--9--9--9--9--9--9--| x 4
D|-7-7-7-7--5-5-5-5--10-10-10-10-10-10-10-10-|
A|-7-7-7-7--5-5-5-5--10-10-10-10-10-10-10-10-|
E|-5-5-5-5--3-3-3-3--8--8--8--8--8--8--8--8--|

Riff that plays in when the song gets quiet 
e|---------8-8-8-8-8-8-8-8--8-5----------------------|
B|-8-8-8-8----------------------8--------------------|
G|--------------------------------9-12-14-12-14-12-9-| x 1
D|---------------------------------------------------|
A|---------------------------------------------------|
E|---------------------------------------------------|

            
            
Suggest correction
Creating personal tab
Creating personal tab
You can edit any tab online and save it as your Personal.

You can edit, replace or remove any tab part or add personal notes – all changes will be seen only by you.

Personal tabs can be accessed anytime from any device, even offline.
Learn more »
comments
print report bad tab
1 comment total.
0 reply
xwickedxninja69 10 Oct 21, 2017 01:29 AM

I think the break or solo is played like
Riff that plays in when the song gets quiet
e|-0-0-0-0-0-0-3-3-3-3-3-8-8-8-8-5-3-5-3-5p-3-5p-------|
B|------------------------------------------------5-----|

guest
You may want to rate the tab now too:
select rating
Wanna post a correction for this tab? Suggest correction