Oops, an error
Loading. Please wait.
We have an official Debaser tab made by UG professional guitarists. Check out the tab »
×
by Pixies
34,832 views 51 this week
4 commentsread comments
1 2 3 4 5
x 12
add to favorites
×
Save as Personal and add changes to this tab that will be seen only by you. Learn more ›
×
You can save this tab as Personal to edit and correct it or add notes. All changes will be seen only by you. Learn more »
launch autoscroll
font size
0
reset
how to read this tab
guitar tuner
backing track
0:00
0:00
edit
Autoscroll
slow
fast
+/-
esc
set tempo
stop
Author
Difficulty
intermediate
Debaser
From the album "Doolittle", 1989
Guitar 1: Black Francis
Guitar 2: Joey Santiago

[Intro](Bass)
G|-------------------------------------|
D|-------------------------------------|
A|-1-1-1-1---------3-3-3-3-------------|
E|---------1-1-1-1----------1-1-1-1----|

[Riff 1]
e|-8-8-10-8-8-8-10-8-8-8-10-8-8-8-10----|
B|-8-8-10-8-8-8-10-8-8-8-10-8-8-8-10----|
G|--------------------------------------|
D|--------------------------------------|
A|--------------------------------------|
E|--------------------------------------|

[Riff 2]                          C     F Bb  G Bb  F Bb  G Bb       C
e|--------------------------------------------------------------------------|
B|--------------------------------------------------------------------------|
G|---------------------3-2-3-0---5-5-5-------------------3-2-3------5-5-5---|
D|-3-2---3-2-0---3-2-3-----------5-5-5-3-2---3-2-0-3-2-3------------5-5-5---|
A|-----3-------------------------3-3-3-----3------------------------3-3-3---|
E|--------------------------------------------------------------3-----------|

[Verse 1]
   F        Bb          G     Bb
e|--------------------------------------------------------------------------|
B|-10-10-10-11-11-11-11-8-8-8-11-11-11-11-----------------------------------|
G|-10-10-10-10-10-10-10-7-7-7-10-10-10-10---x2------------------------------|
D|--------------------------------------------------------------------------|
A|--------------------------------------------------------------------------|
E|--------------------------------------------------------------------------|

   F        Bb          G        Bb
e|--------------------------------------------------------------------------|
B|-10-10-10-11-11-11-11-11-11-11-11-11-11-11--------------------------------|
G|-10-10-10-10-10-10-10-12-12-12-10-10-10-10---x2---------------------------|
D|--------------------------------------------------------------------------|
A|--------------------------------------------------------------------------|
E|--------------------------------------------------------------------------|

        F        Bb          G     Bb
e|--------------------------------------------|
B|-----10-10-10-11-11-11-11-8-8-8-11-11-11-11-|
G|-o---10-10-10-10-10-10-10-7-7-7-10-10-10-10-|
D|-o------------------------------------------|
A|--------------------------------------------|
E|--------------------------------------------|

   F        Bb          G        Bb
e|----------------------------------------------|
B|-10-10-10-11-11-11-11-11-11-11-11-11-11-11----|
G|-10-10-10-10-10-10-10-12-12-12-10-10-10-10--o-|
D|--------------------------------------------o-|
A|----------------------------------------------|
E|----------------------------------------------|

[Chorus]
       Grow up to be, be a Debaser
                              Bb   F   C   F
e|--------------------------------------------------------------------------|
B|-11-(let ring)------------------------------------------------------------|
G|-10-----------------------------------------------------------------------|
D|--------------------------------------------------------------------------|
A|--------------------------------------------------------------------------|
E|--------------------------------------------------------------------------|

[Riff 1]
[Riff 2]

[Verse 2]
F Bb       G      Bb       F   Bb         G         Bb
  Got me a movie, ah-ha-ha-ho, slicing up eyeballs, ha-ha-ha-ho

         Girl is so groovy, ah-ha-ha-ho...
  F      Bb         G       Bb       F            Bb    G    Bb
e|--------------------------------------------------------------------------|
B|--10---11---------12------13b------10-----------11----12----13b-----------|
G|--------------------------------------------------------------------------|
D|--------------------------------------------------------------------------|
A|--------------------------------------------------------------------------|
E|--------------------------------------------------------------------------|

        F        Bb          G     Bb
e||--------------------------------------------|
B||-----10-10-10-11-11-11-11-8-8-8-11-11-11-11-|
G||-o---10-10-10-10-10-10-10-7-7-7-10-10-10-10-|
D||-o------------------------------------------|
A||--------------------------------------------|
E||--------------------------------------------|

   F        Bb          G        Bb
e|----------------------------------------------|
B|-10-10-10-11-11-11-11-11-11-11-11-11-11-11----|
G|-10-10-10-10-10-10-10-12-12-12-10-10-10-10--o-|
D|--------------------------------------------o-|
A|----------------------------------------------|
E|----------------------------------------------|

[Chorus]

[Riff 1]

[Riff 2]

[Interlude:]
        F        Bb          G     Bb
e|--------------------------------------------|
B|-----10-10-10-11-11-11-11-8-8-8-11-11-11-11-|
G|-o---10-10-10-10-10-10-10-7-7-7-10-10-10-10-|
D|-o------------------------------------------|
A|--------------------------------------------|
E|--------------------------------------------|

   F        Bb          G        Bb
e|----------------------------------------------|
B|-10-10-10-11-11-11-11-11-11-11-11-11-11-11----|
G|-10-10-10-10-10-10-10-12-12-12-10-10-10-10--o-|
D|--------------------------------------------o-|
A|----------------------------------------------|
E|----------------------------------------------|

    F      Bb        G       Bb
e|-12b-12b-12b-12b-12b-12b-12b-12b-12b------------|
B|------------------------------------------------|
G|-------------------------------------------x4---|
D|------------------------------------------------|
A|------------------------------------------------|
E|------------------------------------------------|

   F     Bb       G     Bb
e|-------------------------------------------|
B|-------------------------------------------|
G|-10-10-10-10-10-12-12-10-10-10--------x3---|
D|-------------------------------------------|
A|-------------------------------------------|
E|-------------------------------------------|

   F        Bb          G        Bb       F
e|--------------------------------------------------------------------------|
B|-10-10-10-11-11-11-11-11-11-11-11-11-11-10-(let ring)---------------------|
G|-10-10-10-10-10-10-10-12-12-12-10-10-10-10--------------------------------|
D|--------------------------------------------------------------------------|
A|--------------------------------------------------------------------------|
E|--------------------------------------------------------------------------|

************************************

| x  Dead note
| b  Bend
| (let ring) 

************************************

            
            
Suggest correction
Creating personal tab
Creating personal tab
You can edit any tab online and save it as your Personal.

You can edit, replace or remove any tab part or add personal notes – all changes will be seen only by you.

Personal tabs can be accessed anytime from any device, even offline.
Learn more »
comments
print report bad tab
4 comments total. Showing first comments.
0 reply
jasonstatement 10 Jan 22, 2009 08:42 PM

Killer tab

0 reply
gerogecopper 46 Feb 11, 2009 07:08 AM

very nice

0 reply
Just2Rusty 30 Mar 29, 2009 10:18 PM

Rad.

guest
You may want to rate the tab now too:
select rating
Wanna post a correction for this tab? Suggest correction