Oops, an error
Loading. Please wait.
We have an official Hey tab made by UG professional guitarists. Check out the tab »
×
by Pixies
7,072 views 3 this week
no commentswrite comment
1 2 3 4 5
2 more votes to show rating
add to favorites
×
Save as Personal and add changes to this tab that will be seen only by you. Learn more ›
×
You can save this tab as Personal to edit and correct it or add notes. All changes will be seen only by you. Learn more »
launch autoscroll
font size
0
reset
guitar tuner
backing track
0:00
0:00
edit
Autoscroll
slow
fast
+/-
esc
set tempo
stop
You may remeber this song from a part in "Zack and Miri..." I thought it was a song that 
much summed up the moment and being one of my favorite bands, I thought I might submit 
tab. So...here goes...

Note: my bass is a five string tuned to EADGC, but as long as you have an A and a D 
(which you should have if your using standard tuning anyway,), you should be fine. You will 
be able to find more variant as you learn the song. It's simple.


C-------------------------------------------------------------------|
G-------------------------------------------------------------------|
D----2-3-4-4--5-6-7-7---------------2-3-4-4--5-6-7-7----------------|
A---4----------------3-4-5-5-2-3-4-4----------------3-4-5-5-2-3-4-4-|
E-------------------------------------------------------------------|


C-------------------------------------------------------------------|
G-------------------------------------------------------------------|
D-2-3-4-4--5-6-7-7---------------2-3-4-4--5-6-7-7---------------2-3-|
A-----------------3-4-5-5-2-3-4-4----------------3-4-5-5-2-3-4-4----|
E-------------------------------------------------------------------|


C-------------|
G-------------|
D-4-4-5-6-7-7-|
A-------------|
E-------------|

Chorus

C-------------------------------------------------------------------|
G-------------------------------------------------------------------|
D------4-------------------------------4-4-4-4-4-4-4-4--------------|
A-5--2--5-5-5-5-5-5-5-5-2-2-2-2-2-2-2-2---------------5-5-5-5-5-5-5-|
E-------------------------------------------------------------------|

C-------------------------------------------------------------------|
G-------------------------------------------------------------------|
D------------------4-4-4-4-4-4-4-4----------------------------------|
A-5-2-2-2-2-2-2-2-2---------------5-5-5-5-5-5-5-5-5-2-2-2-2-2-2-2-2-|
E-------------------------------------------------------------------|

Repeat the whole thing three times, and you've got the whole song.

            
            
Suggest correction
Creating personal tab
Creating personal tab
You can edit any tab online and save it as your Personal.

You can edit, replace or remove any tab part or add personal notes – all changes will be seen only by you.

Personal tabs can be accessed anytime from any device, even offline.
Learn more »
Give kudos to tab author, rate the tab!
1 2 3 4 5
comments
print report bad tab
guest
You may want to rate the tab now too:
select rating
Wanna post a correction for this tab? Suggest correction