Oops, an error
Loading. Please wait.
We have an official Hey tab made by UG professional guitarists. Check out the tab »
×
by Pixies
326,764 views 204 this week
6 commentsread comments
1 2 3 4 5
x 36
add to favorites
×
Save as Personal and add changes to this tab that will be seen only by you. Learn more ›
×
You can save this tab as Personal to edit and correct it or add notes. All changes will be seen only by you. Learn more »
launch autoscroll
font size
0
reset
how to read this tab
guitar tuner
backing track
0:00
0:00
edit
Autoscroll
slow
fast
+/-
esc
set tempo
stop
Author
Unregistered
HEY
by the Pixies
off of Doolittle
Transcribed by Mark Schnitzius (schnitzi@east.isx.com)

[Just bass]

G|---------------------------------------------------------------|
D|---------------------------------------------------------------|
A|-------------------0----1---2-----2--2-3-4-5---5--5------------|
E|-------2-------------------------------------------------------|
    hey   been trying to meet you


[Guitar starts]

e|--------2---X----------2---------------------------------------|
B|--------3---X-X--3-3-----3------[repeats]----------------------|
G|--------2h4---X--2-2h4-----4-----------------------------------|
D|---------------------------------------------------------------|
A|---------------------------------------------------------------|
E|---------------------------------------------------------------|
 
 
G|---------------------------------------------------------------|
D|---------------------------------------------------------------|
A|---------------------------------------------------------------|
E|--0--2--3---------3---3---------0--1--2--2--2------------------|


[Verse]

hey
must be a devil between us
or whores in my head
whores at my door
whores in my bed
but hey
where
have you
been
if you go i will surely die

      G       Em   Bm  G  Em  Bm .....
we're chained


[Solo]

e|--------------------------------------------------------------|
B|--------------------------------------------------------------|
G|--7-------------6---------------------------------------------|
D|----9-7-----------7-------------------------------------------|
A|--------9-7h8h9-----9--7-7h8h9--7-5-----------7-5-------------|
E|------------------------------------7-5-5h6h7-----7-5-5h6h7---|


[Repeats]

uh
said the man to the lady
uh
sad the lady to the man she adored
and the whores like a choir
go uh all night
and mary ain't you tired of this
uh
is
the
sound
that the mother makes when the baby breaks
we're chained



************************************

| h  Hammer-on
| X  Mute note

************************************

            
            
Suggest correction
Creating personal tab
Creating personal tab
You can edit any tab online and save it as your Personal.

You can edit, replace or remove any tab part or add personal notes – all changes will be seen only by you.

Personal tabs can be accessed anytime from any device, even offline.
Learn more »
comments
print report bad tab
6 comments total. Showing first comments.
+1 reply
killed yr idols 70 Oct 13, 2005 04:28 PM

wouldn't it be easier...
e|-------------------|
B|-7-x---------7-----|
G|-7-x-x-7-7-----7---|
D|-7---x-7-7h9-----9-|
A|-------------------|
E|-------------------|

+1 reply
GuitarBabyD 10 May 07, 2007 10:56 AM

alright...There is more to the bass in the start...
-----------------------------
-----------------------------
-----------------------------
---0-2-3-3-0-1-2-2-----------

+2 reply
JelloBeans 71 Aug 01, 2008 07:28 AM

rhythm and bass are both right but solo is missing half

guest
Wanna post a correction for this tab? Suggest correction