Oops, an error
Loading. Please wait.
We have an official Where Is My Mind tab made by UG professional guitarists. Check out the tab »
×
by Pixies
6,957 views 3 this week
no commentswrite comment
1 2 3 4 5
x 5
add to favorites
×
Save as Personal and add changes to this tab that will be seen only by you. Learn more ›
×
You can save this tab as Personal to edit and correct it or add notes. All changes will be seen only by you. Learn more »
launch autoscroll
font size
0
reset
guitar tuner
backing track
0:00
0:00
edit
Autoscroll
slow
fast
+/-
esc
set tempo
stop
Author
Song: Where Is My Mind?
Band: Pixies
Album: Surfer Rosa|
Bassist: Kim Deal

Bass comes in at 0:21

Main Riff
G--------------------|
D--------------------|
A------4444------0000|
E-0000------4444-----|

This riff is played until 1:03.
Then a variation is played with the same rhythm as the guitar.

Variation
G-----------------------------------------------------|
D-----------------------------------------------------|
A----------4-4-4-44----------0-0-0-00-4~--------------|
E-0-0-0-00----------4-4-4-44-------------2-222-22-2222|

This varation ends at 1:14.
Then it's back to the main riff.

Main Riff
G--------------------|
D--------------------|
A------4444------0000|
E-0000------4444-----|

The main riff is played until 1:50.
Then it is then back to the variation.

Variation
G-----------------------------------------------------|
D-----------------------------------------------------|
A----------4-4-4-44----------0-0-0-00-4~--------------|
E-0-0-0-00----------4-4-4-44-------------2-222-22-2222|

This riff is played over and over throughout the brief guitar solo which starts at 2:01

Brief Solo Riff
G--------------|
D--------------|
A--------------|
E-2-222-22-2222|

At 2:10 it is back to the main riff.

Main Riff
G--------------------|
D--------------------|
A------4444------0000|
E-0000------4444-----|

Main riff is played until 3:51 then a very abrupt ending is played like so.

Ending
G-------------|
D-------------|
A------4444---|
E-0000------44|

All instruments stop at 3:44 and song fades out with humming.


I broke this tab down so it is easy to follow and easy to learn. Its a good beginner 
line. Please rate. Enjoy.

Tabbed By: Jorlock

            
            
Suggest correction
Creating personal tab
Creating personal tab
You can edit any tab online and save it as your Personal.

You can edit, replace or remove any tab part or add personal notes – all changes will be seen only by you.

Personal tabs can be accessed anytime from any device, even offline.
Learn more »
comments
print report bad tab
guest
You may want to rate the tab now too:
select rating
Wanna post a correction for this tab? Suggest correction