Oops, an error
Loading. Please wait.
We have an official Where Is My Mind tab made by UG professional guitarists. Check out the tab »
×

Where Is My Mind tab

version 2
version 2

Whole song

Video

  • Detailed breakdown of chords, intro and guitar sol... Show more
by Pixies
20,915 views 108 this week
1 commentread comment
1 2 3 4 5
x 23
add to favorites
×
Save as Personal and add changes to this tab that will be seen only by you. Learn more ›
×
You can save this tab as Personal to edit and correct it or add notes. All changes will be seen only by you. Learn more »
launch autoscroll
font size
0
reset
how to read this tab
guitar tuner
backing track
0:00
0:00
edit
Autoscroll
slow
fast
+/-
esc
set tempo
stop
Author
I was sick of seeing so many popular tabs on this that I don't agree with--
they left out the open string that makes the main riff so powerful!
A song this good deserves much better!

Where Is My Mind?
by Pixies

Tabbed by Bound

Tuning - E Standard (EBGDAe)
Meant for electric guitar with medium-heavy distortion.

starting at 0:17
[intro/chorus]
  E   E   E   E   E   E   E   E    E   E   E   E   E T E T E T E T
E|----4-------4-------4-------4---|----4-------4---0L--0L--0L--0L--|
B|5-------5-------5-------5-------|4-------4-------4h5-5p4-4h5-5p0-|
G|--------------------------------|--------------------------------|
D|--------------------------------|--------------------------------|
A|--------------------------------|--------------------------------|
e|--------------------------------|--------------------------------|x5

0:47 break... (bass)

0:59
[Verse]
  H               H                H               H
E|--------------------------------|-------------------------------|
B|--------------------------------|-------------------------------|
G|----------------6---------------|-------------------------------|
D|2---------------6---------------|6---------------7--------------|
A|2---------------4---------------|6---------------7--------------|
e|0-------------------------------|4---------------5--------------|

  E   E   E   E   E   E   E   E    E   E   E   E   E   E   E   E
E|--------------------------------|-------------------------------|
B|--------------------------------|-------------------------------|
G|--------------------------------|----------------5---5---5---5--|
D|2---2---2---2---6---6---6---6---|7---7---7---7---7---7---7---7--|
A|2---2---2---2---6---6---6---6---|7---7---7---7---7---7---7---7--|
e|0---0---0---0---4---4---4---4---|5---5---5---5---5---5---5---5--|
  PM...............................................pm......L

[Pre-Chorus]
  W                                E   E   E   S S S S S S S S S S
E|--------------------------------|-------------------------(7(7(7)-|
B|--------------------------------(7)-(7)-(7)-(7(7(7(7(7(7(7)7-7-7--|
G|6-------------------------------(8)-(8)-(8)--8-8-8-8-8-8-8-8-8-8--|
D|6-------------------------------|9---9---9---9-9-9-9-9-9-9-9-9-9--|
A|4-------------------------------|9---9---9---9-9-9-9-9-9-9-9-9-9--|
e|--------------------------------|7---7---7---7-7-7-7-7-7-7-7-7-7--|
  L

[Chorus]x3
  E   E   E   E   E   E   E   E    E   E   E   E   E T E T E T E T
E|----4-------4-------4-------4---|----4-------4---0L--0L--0L--0L--|
B|5-------5-------5-------5-------|4-------4-------4h5-5p4-4h5-5p0-|
G|--------------------------------|--------------------------------|
D|--------------------------------|--------------------------------|
A|--------------------------------|--------------------------------|
e|--------------------------------|--------------------------------|

[Verse]
  H               H                H               H
E|--------------------------------|-------------------------------|
B|--------------------------------|-------------------------------|
G|----------------6---------------|-------------------------------|
D|2---------------6---------------|6---------------7--------------|
A|2---------------4---------------|6---------------7--------------|
e|0-------------------------------|4---------------5--------------|

  E   E   E   E   E   E   E   E    E   E   E   E   E   E   E   E
E|--------------------------------|-------------------------------|
B|--------------------------------|-------------------------------|
G|--------------------------------|----------------5---5---5---5--|
D|2---2---2---2---6---6---6---6---|7---7---7---7---7---7---7---7--|
A|2---2---2---2---6---6---6---6---|7---7---7---7---7---7---7---7--|
e|0---0---0---0---4---4---4---4---|5---5---5---5---5---5---5---5--|
  PM...............................................pm......L

[Pre-Chorus]
  W                                E   E   E   S S S S S S S S S S
E|--------------------------------|-------------------------(7(7(7)-|
B|--------------------------------(7)-(7)-(7)-(7(7(7(7(7(7(7)7-7-7--|
G|6-------------------------------(8)-(8)-(8)--8-8-8-8-8-8-8-8-8-8--|
D|6-------------------------------|9---9---9---9-9-9-9-9-9-9-9-9-9--|
A|4-------------------------------|9---9---9---9-9-9-9-9-9-9-9-9-9--|
e|--------------------------------|7---7---7---7-7-7-7-7-7-7-7-7-7--|

[Solo] around 2:02
There are two guitars harmonizing here, I did the guitar panned to the left.
  Q       Q       Q     S S S S S S  Q       Q   E S Q  E  S S S
E|----------------------------------|----------------------------|
B|7L------7L------7L----------------|--------------------------7-|
G|9b11----9b11----9b11--9-9-7-7-----|7-------9-----7-------7-9---|
D|------------------------------9---|----------------9-----------|
A|----------------------------------|----------------------------|
e|----------------------------------|----------------------------|

  S  S  E     Q     Q      Q      Q
E|----------------------------------------|
B|10-10-12----15----17b19--17b19--17b19\x-|
G|----------------------------------------|
D|----------------------------------------|
A|----------------------------------------|
e|----------------------------------------|

[Chorus] x3
  E   E   E   E   E   E   E   E    E   E   E   E   E T E T E T E T
E|----4-------4-------4-------4---|----4-------4---0L--0L--0L--0L--|
B|5-------5-------5-------5-------|4-------4-------4h5-5p4-4h5-5p0-|
G|--------------------------------|--------------------------------|
D|--------------------------------|--------------------------------|
A|--------------------------------|--------------------------------|
e|--------------------------------|--------------------------------|

[Verse]
  H               H                H               H
E|--------------------------------|-------------------------------|
B|--------------------------------|-------------------------------|
G|----------------6---------------|-------------------------------|
D|2---------------6---------------|6---------------7--------------|
A|2---------------4---------------|6---------------7--------------|
e|0-------------------------------|4---------------5--------------|

  E   E   E   E   E   E   E   E    E   E   E   E   E   E   E   E
E|--------------------------------|-------------------------------|
B|--------------------------------|-------------------------------|
G|--------------------------------|----------------5---5---5---5--|
D|2---2---2---2---6---6---6---6---|7---7---7---7---7---7---7---7--|
A|2---2---2---2---6---6---6---6---|7---7---7---7---7---7---7---7--|
e|0---0---0---0---4---4---4---4---|5---5---5---5---5---5---5---5--|
  PM...............................................pm......L

[Pre-Chorus]
  W                                E   E   E   S S S S S S S S S S
E|--------------------------------|-------------------------(7(7(7)-|
B|--------------------------------(7)-(7)-(7)-(7(7(7(7(7(7(7)7-7-7--|
G|6-------------------------------(8)-(8)-(8)--8-8-8-8-8-8-8-8-8-8--|
D|6-------------------------------|9---9---9---9-9-9-9-9-9-9-9-9-9--|
A|4-------------------------------|9---9---9---9-9-9-9-9-9-9-9-9-9--|
e|--------------------------------|7---7---7---7-7-7-7-7-7-7-7-7-7--|

[Chorus]... listen for the cutoff at the end of the song.
  E   E   E   E   E   E   E   E    E   E   E   E   E T E T E T E T
E|----4-------4-------4-------4---|----4-------4---0L--0L--0L--0L--|
B|5-------5-------5-------5-------|4-------4-------4h5-5p4-4h5-5p0-|
G|--------------------------------|--------------------------------|
D|--------------------------------|--------------------------------|
A|--------------------------------|--------------------------------|
e|--------------------------------|--------------------------------|

************************************

| h    Hammer-on
| p    Pull-off
| PM   Palm mute
| (n)  Ghost note
| b    Bend

************************************

            
            
Suggest correction
Creating personal tab
Creating personal tab
You can edit any tab online and save it as your Personal.

You can edit, replace or remove any tab part or add personal notes – all changes will be seen only by you.

Personal tabs can be accessed anytime from any device, even offline.
Learn more »
comments
print report bad tab
1 comment total.
0 reply
STRAT-FTW 10 Sep 28, 2012 01:15 PM

This tab is perfect!

guest
You may want to rate the tab now too:
select rating
Wanna post a correction for this tab? Suggest correction