Oops, an error
Loading. Please wait.

In A Funk bass

by Placebo
554 views 3 this week
no commentswrite comment
1 2 3 4 5
2 more votes to show rating
add to favorites
×
Save as Personal and add changes to this tab that will be seen only by you. Learn more ›
×
You can save this tab as Personal to edit and correct it or add notes. All changes will be seen only by you. Learn more »
launch autoscroll
font size
0
reset
guitar tuner
edit
Autoscroll
slow
fast
+/-
esc
set tempo
stop
-------------------------------------------------------------------------------
			     IN A FUNK - Placebo
-------------------------------------------------------------------------------

Tabbed By : Gustavo Collado


Tuning: DADG

Intro

G|----7-7-7-7----7-7-7-7-----|
D|-5r---------------------5r-| X2
A|------------8r-------------|
D|---------------------------|


Verse 1
(Call me anticipation, call me out of line...)

G|----7-7-7-7----7-7-7-7-----|
D|-5r---------------------5r-| X4
A|------------8r-------------|
D|---------------------------|


Chorus 1
(Heaven knows, if you promise not to go...)

G|---------------------------------------------------------------------------|
D|------------3-3----3-3----3-3/7-5----5-5----5----5-5-----3-3----3-3----3-3-|
A|---------------------------------------------------------------------------|
D|-(5)h-3r-3r-----3r-----3r---------5r-----5r---5r-----/3r-----3r-----3r-----|

G|----7-7-7-7----7-7-7-7-|
D|-----------------------|
A|-----------------------|
D|-5r---------3r---------|


Verse 2
(Call me animation, call me asinine...)

G|----7-7-7-7----7-7-7-7-----|
D|-5r---------------------5r-| X4
A|------------8r-------------|
D|---------------------------|


Chorus 2
(Heaven knows, if you promise not to go...)

G|---------------------------------------------------------------------------|
D|------------3-3----3-3----3-3/7-5----5-5----5----5-5-----3-3----3-3----3-3-|
A|---------------------------------------------------------------------------|
D|-(5)h-3r-3r-----3r-----3r---------5r-----5r---5r-----/3r-----3r-----3r-----|

G|--------------------------------------------------|
D|--------------------------------------------------|
A|--------------------------------------------------|
D|-555555-3333333-111111/3/1h0-000000-111111-333333-|

G|-----------------------------|
D|-----------------------------| X4
A|--------111111---------------|
D|-555555--------333333-111111-|


Verse 3
(Is it my imagination? is this the end of the line? ...)

G|----------------------|
D|----------------------|
A|----------------------|
D|-5r----3r----5r----3r-|


Chorus 3
(God only knows, if you promise not to go...)
G|---------------------------------|
D|---------------------------------|
A|---------------------------------|
D|-555555-333333-1111111/333333444-|

G|------------------------------|
D|------------------------------|
A|------------------------------|
D|-555555-333333-1111111/333333-|


Outro
(Let me pay you back in kind, let me pay you back in kind...)

G|-----------------------------|
D|-----------------------------| X4
A|--------111111---------------|
D|-555555--------333333-111111-|

G|----|
D|----|
A|----|
D|-5r-|

            
            
Suggest correction
Creating personal tab
Creating personal tab
You can edit any tab online and save it as your Personal.

You can edit, replace or remove any tab part or add personal notes – all changes will be seen only by you.

Personal tabs can be accessed anytime from any device, even offline.
Learn more »
Give kudos to tab author, rate the tab!
1 2 3 4 5
comments
print report bad tab
guest
You may want to rate the tab now too:
select rating
Wanna post a correction for this tab? Suggest correction