Oops, an error
Loading. Please wait.

Infra-Red tab

version 1
version 1

Whole song

Interactive

by Placebo
11,023 views 3 this week
11 commentsread comments
1 2 3 4 5
x 15
add to favorites
×
Save as Personal and add changes to this tab that will be seen only by you. Learn more ›
×
You can save this tab as Personal to edit and correct it or add notes. All changes will be seen only by you. Learn more »
launch autoscroll
font size
0
reset
how to read this tab
guitar tuner
backing track
0:00
0:00
edit
Autoscroll
slow
fast
+/-
esc
set tempo
stop
Author
Difficulty
----------------------------------------------------------------------------
                             INFRA-RED - Placebo
----------------------------------------------------------------------------
Tabbed by: Stumaster18
Email: ????

This song is the second single from Placebo's new CD "Meds". I have also tabbed other 
from that CD. Just click on my name at the top. Please rate them all :)

Tuning: Standard


Intro:
e|-1---3----5---6-|
B|---3---33---3---|
G|----------------| x5
D|----------------|
A|----------------|
E|----------------|


Verse:
e|-1---3----5---6-|
B|---3---33---3---|
G|----------------| x6
D|----------------|
A|----------------|
E|----------------|


Pre-Chorus

  "There's    gonna     be    an     accident"
e|--------------------------------------------|
B|--------------------------------------------|
G|-333333333333333333333333333333333333333333-|
D|--------------------------------------------|
A|--------------------------------------------|
E|--------------------------------------------|


Chorus:

Guitar 1:
e|-1---3----5---6-|
B|---3---33---3---|
G|----------------| x8
D|----------------|
A|----------------|
E|----------------|

Guitar 2:
e|------this-once...-----------|---...then-this-once--------|
B|-----------------------------|----------------------------|
G|-10--------8-----------------|-10--------8--------7-------|
D|-10-(x16)--8-(x16)--8--------|-10-(x16)--8-(x16)--7-(x32)-|
A|--8--------6--------8-(x32)--|--8--------6--------5-------|
E|--------------------6--------|----------------------------|


Verse 2:
e|-1---3----5---6-|
B|---3---33---3---|
G|----------------| x8
D|----------------|
A|----------------|
E|----------------|


Pre-Chorus

  "There's    gonna     be    an     accident"
e|--------------------------------------------|
B|--------------------------------------------|
G|-333333333333333333333333333333333333333333-|
D|--------------------------------------------|
A|--------------------------------------------|
E|--------------------------------------------|


Chorus:

Guitar 1:
e|-1---3----5---6-|
B|---3---33---3---|
G|----------------| x8
D|----------------|
A|----------------|
E|----------------|

Guitar 2:
e|------this-once...-----------|---...then-this-once--------|
B|-----------------------------|----------------------------|
G|-10--------8-----------------|-10--------8--------7-------|
D|-10-(x16)--8-(x16)--8--------|-10-(x16)--8-(x16)--7-(x32)-|
A|--8--------6--------8-(x32)--|--8--------6--------5-------|
E|--------------------6--------|----------------------------|


Interlude:
e|---5-6-5----5-6-5-|
B|-3-------33-------|
G|------------------|
D|------------------| x6
A|------------------|
E|------------------|


Pre-Chorus

  "There's    gonna     be    an     accident"
e|--------------------------------------------|
B|--------------------------------------------|
G|-333333333333333333333333333333333333333333-|
D|--------------------------------------------|
A|--------------------------------------------|
E|--------------------------------------------|


Chorus:

Guitar 1:
e|-1---3----5---6-|
B|---3---33---3---|
G|----------------| x16
D|----------------|
A|----------------|
E|----------------|

Guitar 2:
e|------this-once...-----------|---...then-this-once--------|
B|-----------------------------|----------------------------|
G|-10--------8-----------------|-10--------8--------7-------| x2
D|-10-(x16)--8-(x16)--8--------|-10-(x16)--8-(x16)--7-(x32)-|
A|--8--------6--------8-(x32)--|--8--------6--------5-------|
E|--------------------6--------|----------------------------|


Outro:
e|-----|
B|-----|
G|--7--| <<< just keep strumming that until End.
D|--7--|
A|--5--|
E|-----|

There you go. Have fuN!

            
            
Suggest correction
Creating personal tab
Creating personal tab
You can edit any tab online and save it as your Personal.

You can edit, replace or remove any tab part or add personal notes – all changes will be seen only by you.

Personal tabs can be accessed anytime from any device, even offline.
Learn more »
comments
print report bad tab
11 comments total. Showing first comments.
0 reply
Hurter 190 Oct 01, 2006 01:18 PM

Stumaster SUCKS!!!!!!!
PLACEBO ROCKS!!!!!
What's your ****ing mail????

0 reply
Hurter 190 Oct 01, 2006 01:18 PM

The Worst Taber!!!!!

0 reply
Hurter 190 Oct 01, 2006 01:21 PM

it's wrong!!!!! It's so ****ing simple, im a novice and i'd been tabbing better tabs than this, your power chords are wrong!!!
Why don't you write your mail???? coward

guest
You may want to rate the tab now too:
select rating
Wanna post a correction for this tab? Suggest correction