Oops, an error
Loading. Please wait.

Lady Of The Flowers tab

version 3
version 3

Whole song

Interactive

by Placebo
3,736 views 9 this week
1 commentread comment
1 2 3 4 5
x 4
add to favorites
×
Save as Personal and add changes to this tab that will be seen only by you. Learn more ›
×
You can save this tab as Personal to edit and correct it or add notes. All changes will be seen only by you. Learn more »
launch autoscroll
font size
0
reset
how to read this tab
guitar tuner
edit
Autoscroll
slow
fast
+/-
esc
set tempo
stop
Author
-------------------------------------------------------------------------------
                             LADY OF THE FLOWERS - Placebo
-------------------------------------------------------------------------------
Tabbed by: Luis Gustavo Hernández Collado
Email:ltavo_87@hotmail.com

Tuning:FA#D#G#CC

Intro
C |-------------------------------------------|
C |-------------------------------------------|
G#|-----4-5-4r-----4-5-4----5-4r-----4-5-4----|
D#|---2----------2-------2r--------2-------2r-|
A#|-3----------3-----------------3------------|
F |-------------------------------------------|

Verse 1
(Excuse me, I apologize...)
C |------------------------------|
C |-5-8-0r---0-8-5r---5-8-0-0----|
G#|---------------------------5r-|X4
D#|------------------------------|
A#|------------------------------|
F |------------------------------|

(It seemed to last for hours, it seemed to last for days...)
C |-----------------------------|
C |-----------------------------|
G#|-10109-10-10109-10-10109-10r-|X4
D#|-10101010-10101010-10101010r-|
A#|-8-8-8-8--8-8-8-8--8-8-8-8---|
F |-----------------------------|

(Excuse me, I apologize...)
C |------------------------------|
C |-5-8-0r---0-8-5r---5-8-0-0----|
G#|---------------------------5r-|X4
D#|------------------------------|
A#|------------------------------|
F |------------------------------|

(It seemed to last for hours, it seemed to last for days...)
C |-----------------------------|
C |-----------------------------|
G#|-10109-10-10109-10-10109-10r-|X4
D#|-10101010-10101010-10101010r-|
A#|-8-8-8-8--8-8-8-8--8-8-8-8-r-|
F |-----------------------------|

Chorus 1
(She wears her tears on her blouse...)
C |---------------------------|
C |-1-1-1-111-----------------|
G#|-2-0-2-020-5-5-5-5-5-5-5-5-|X3
D#|-3-3-3-333-5-5-5-5-5-5-5-5-|
A#|-3-3-3-333-3-3-3-3-3-3-3-3-|
F |-----------0-0-0-0-0-0-0-0-|

C |--------------|
C |-1-1-1-111----|
G#|-2-0-2-020-5r-|
D#|-3-3-3-333-5r-|
A#|-3-3-3-333-3r-|
F |-----------0r-|

Verse 2
(Excuse me, I apologize...)
C |------------------------------|
C |-5-8-0r---0-8-5r---5-8-0-0----|
G#|---------------------------5r-|X4
D#|------------------------------|
A#|------------------------------|
F |------------------------------|

(It seemed to last for hours, it seemed to last for days...)
C |-----------------------------|
C |-----------------------------|
G#|-10109-10-10109-10-10109-10r-|X4
D#|-10101010-10101010-10101010r-|
A#|-8-8-8-8--8-8-8-8--8-8-8-8---|
F |-----------------------------|

Chorus 2
(She wears her tears on her blouse...)
C |---------------------------|
C |-1-1-1-111-----------------|
G#|-2-0-2-020-5-5-5-5-5-5-5-5-|X7
D#|-3-3-3-333-5-5-5-5-5-5-5-5-|
A#|-3-3-3-333-3-3-3-3-3-3-3-3-|
F |-----------0-0-0-0-0-0-0-0-|

C |--------------|
C |-1-1-1-111----|
G#|-2-0-2-020-5r-|
D#|-3-3-3-333-5r-|
A#|-3-3-3-333-3r-|
F |-----------0r-|

Outro
C |-------------------------------------------------------------|
C |-------------------------------------------------------------|
G#|-----4-5-4r-----4-5-4----5-4r-----4-5-4----5-4r-----4-5-4-4r-|
D#|---2----------2-------2r--------2-------2r--------2-------2r-|
A#|-3----------3-----------------3-----------------3------------|
F |-------------------------------------------------------------|

            
            
Suggest correction
Creating personal tab
Creating personal tab
You can edit any tab online and save it as your Personal.

You can edit, replace or remove any tab part or add personal notes – all changes will be seen only by you.

Personal tabs can be accessed anytime from any device, even offline.
Learn more »
comments
print report bad tab
1 comment total.
0 reply
Gavier 10 Sep 16, 2011 08:43 AM

Excelnt tab! But the part when Brain sings "Excuse me, I apologize..." he play like this
C |---0r---0---------------------|
C |--8------8----8r--------------|
G#|-9--------9--9----------------|X4
D#|------------9-----------------|
A#|------------------------------|
F |------------------------------|

guest
You may want to rate the tab now too:
select rating
Wanna post a correction for this tab? Suggest correction