Oops, an error
Loading. Please wait.

Black Sap Scriptures tab

271 views 1 this week
no commentswrite comment
1 2 3 4 5
3 more votes to show rating
add to favorites
×
Save as Personal and add changes to this tab that will be seen only by you. Learn more ›
×
You can save this tab as Personal to edit and correct it or add notes. All changes will be seen only by you. Learn more »
launch autoscroll
font size
0
reset
how to read this tab
guitar tuner
edit
Autoscroll
slow
fast
+/-
esc
set tempo
stop
Black Sap Scriptures  -  Plague Vendor

Lyrics
In down deep, to the gravel I'll speak
Of all the things we've done
How we men live, and how we made them bleed
And the clouds blacked out the sun

But as the moon bled by, and the castle bled the trees
Saw the reading in the black sand, begging us to leave
I've been livin' by myself for centuries
Never did stop the pain, what did I do to me?

Bam babababbab bab bab babbab bab a
Sever my limbs and give me eight eyes
Bam babababbab bab bab babbab bab a

In down deep, to the gravel I'll speak
Of all the things we've done
How we men live, and how we made them bleed
And the clouds blacked out the sun

But as the moon bled by, and the castle bled the trees
Saw the reading in the black sand, begging us to leave
I've been livin' by myself for centuries
Never did stop the pain, what did I do to me?

Guitar  -  Tuning: Standard (EADGBE)


[Intro]

(0:00)                                                  (0:07)         (0:12)
e|-----------------------------------------------------||-------------||----------------------|
B|-----------------------------------------------------||-------------||----------------------|
G|-----------------------------------------------------||-------------||----------------------|
D|-11-11-11-11-11-11-11-11-11-11-11-11-11-11-11-11-11~~||--9--12--11~~||--9-9-9-9-12-12-12-12-|
A|-9--9--9--9--9--9--9--9--9--9--9--9--9--9--9--9---9~~||--7--10---9~~||--7-7-7-7-10-10-10-10-|
E|-----------------------------------------------------||-------------||----------------------|
(0:13)
      X4
e|----------------------------------------------------------------------------------------------|
B|----------------------------------------------------------------------------------------------|
G|----------------------------------------------------------------------------------------------|
D|/17--11-11-11-11-11-11-/17--11-11-11-11-11-11-/17--11-11-11-11-11-11--9--9--9--9--12-12-12-12-|
A|/15---9--9--9--9--9--9-/15---9--9--9--9--9--9-/15---9--9--9--9--9--9--7--7--7--7--10-10-10-10-|
E|----------------------------------------------------------------------------------------------|
       X4


[Verse]                                       [Break]

(0:35)                 X4  (0:56)             (0:57)                               X3
e|------||----------------||-----------------||-------------------------------------||---------||---|
B|------||----------------||-7-7-7-7-7-7-7-7-||-7-7-7-7-7-5-------------------------||-7-7-7-7-||-7~|
G|------||----------------||-----------------||-------------6--6-4-3----------------||---------||---|
D|-11~--||----9~--12~-11~~||-----------------||-----------------------5-5-5-5-5-4---||---------||---|
A|-9~~--||----7~--10~--9~~||-----------------||-----------------------------------7-||---------||---|
E|------||----------------||-----------------||-------------------------------------||---------||---|


[Instrumental]

(1:29)
      X2
e|----------------------------------------------------------------------------------------------|
B|----------------------------------------------------------------------------------------------|
G|----------------------------------------------------------------------------------------------|
D|/17--11-11-11-11-11-11-/17--11-11-11-11-11-11-/17--11-11-11-11-11-11--9--9--9--9--12-12-12-12-|
A|/15---9--9--9--9--9--9-/15---9--9--9--9--9--9-/15---9--9--9--9--9--9--7--7--7--7--10-10-10-10-|
E|----------------------------------------------------------------------------------------------|


[Verse]                                       [Break]

(1:40)                 X4  (2:01)             (2:02)                               X3
e|------||----------------||-----------------||-------------------------------------||---------||---|
B|------||----------------||-7-7-7-7-7-7-7-7-||-7-7-7-7-7-5-------------------------||-7-7-7-7-||-7~|
G|------||----------------||-----------------||-------------6--6-4-3----------------||---------||---|
D|-11~--||----9~--12~-11~~||-----------------||-----------------------5-5-5-5-5-4---||---------||---|
A|-9~~--||----7~--10~--9~~||-----------------||-----------------------------------7-||---------||---|
E|------||----------------||-----------------||-------------------------------------||---------||---|

(2:35)
e|----|
B|----|
G|----|
D|-11-|
A|-9--|
E|----|



************************************

| /  Slide up
| ~  Vibrato

************************************

            
            
Suggest correction
Creating personal tab
Creating personal tab
You can edit any tab online and save it as your Personal.

You can edit, replace or remove any tab part or add personal notes – all changes will be seen only by you.

Personal tabs can be accessed anytime from any device, even offline.
Learn more »
Give kudos to tab author, rate the tab!
1 2 3 4 5
comments
print report bad tab
guest
You may want to rate the tab now too:
select rating
Wanna post a correction for this tab? Suggest correction