Oops, an error
Loading. Please wait.
We have Chord Pro version of 1 2 3 4.
It's the closest thing you can get to the original song and it has interactive parts. Check out the tab »
×
86,951 views 6 this week
5 commentsread comments
1 2 3 4 5
x 17
add to favorites
×
Save as Personal and add changes to this tab that will be seen only by you. Learn more ›
×
You can save this tab as Personal to edit and correct it or add notes. All changes will be seen only by you. Learn more »
launch autoscroll
font size
0
reset
how to read this tab
guitar tuner
edit
Autoscroll
slow
fast
+/-
esc
set tempo
stop
Author
This tab is a combo of the other ones so i think its pretty good.  (Credit to urran89)

Hopefully the placement of the chords doesnt get screwed up but if it does
i think you can just listen for the changes (or see the other tabs)


[tab]


Chords

 D      A       A7?     Bm      G       Gm
-2------0--------3------2-------3-------3--|
-3------2--------2------3-------3-------3--|
-2------2--------2------4-------4-------3--|
-0------2--------2------4-------5-------5--|
--------0--------0------2-------5-------5--|
--------------------------------3-------3--|


Intro:
D, A, Bm, A, G, Gm, D


intro riff

-------------------------------7---9---10-----10---12p10---10------|
--10----7---10-----10-------10-------------------------------------|
---------------9-------7-------------------------------------------|
-------------------------------------------------------------------|
-------------------------------------------------------------------|
-------------------------------------------------------------------|


Verse 1:

D
give me more lovin then i've ever had.
A
make it all better when i'm feelin sad.
Bm                                            A   A7
tell me that i'm special even when i know i'm not.
D
make me feel good when i hurt so bad.
A
barely gettin mad,
              Bm
im so glad i found you.
               A
i love bein around you.
             G
you make it easy,
           A
as easy as 1 2,(1 2 3 4.)

Chorus:
             D         A       Bm          A    G
theres only one thing two do three words four you.
Gm    D
i love you.
(i love you)

             D       A              Bm
theres only one way two say those three words
      A               G
and that's what i'll do.

Gm    D
i love you.
(i love you)

Verse 2:

D
give me more lovin from the very start.
A
piece me back together when i fall apart.
Bm                                               A   A7
tell me things you never even tell your closest friends.
D
make me feel good when i hurt so bad.
A                                      Bm
best that i've had im so glad that i found you.
A
i love bein around you.
             G              A
you make it easy as easy as 1 2,(1 2 3 4.)

Chorus:
             D         A      Bm          A     G
theres only one thing two do three words four you.
Gm   D
i love you.

             D      A              Bm
theres only one way two say those three words
    A                 G
and that's what i'll do.
Gm     D     G  Gm  (D) jump to solo
i love you.  i love you

---------------------------------------------------------------------|
5/7--7-7-7--------7-7---5/7--7-7-7---------7-7--5/7--7-7-7-------7-7-|
------------9-7-9--------------------9-7-9------------------9-7-9----|
---------------------------------------------------------------------|
---------------------------------------------------------------------|
---------------------------------------------------------------------|


----------------------------------------------------------|
------7-7-------------------------------------------------|
-9-7-9----7-9-7-6-----------------------------------------|
-----------------7~---------------------------------------|
----------------------------------------------------------|
----------------------------------------------------------|


--------------------------------------------------------------------|
5/7--7-7-7--------7-7---5/7--7-7-7---10-8-7-----7~--------7---------|
------------9-7-9---------------------------9-9-----7-7-7---9-7-----|
----------------------------------------------------------------7~~-|
--------------------------------------------------------------------|
--------------------------------------------------------------------|


             G                A
you make it easy, its easy as 1234

Single Strum chords:

            D          A      Bm         A      G
theres only one thing two do three words four you
Gm   D   (D)
i love you

Pickup Rhythm

             D       A             Bm
theres only one way two say those three words
A                G
thats what ill do
Gm   (D)jump to outro
i love you


outro
-------------------------------7---9---10~-12~-10~~------|
--10----7---10-----10-------10---------------------------|
---------------9-------7---------------------------------|
---------------------------------------------------------|
---------------------------------------------------------|
---------------------------------------------------------|

-------------------------------7---9---10~-12~-10~~-|-10~-12~-10~~-|
--10----7---10-----10-------10----------------------|--------------|
---------------9-------7----------------------------|--------------|
----------------------------------------------------|--------------|
----------------------------------------------------|--------------|
----------------------------------------------------|--------------|

or you can end on this if you like it sounds cool

--10~--|
--10~--|
--11~--|
--12~--|
--12~--|
--10~--|

[/tab]

            
            
Suggest correction
Creating personal tab
Creating personal tab
You can edit any tab online and save it as your Personal.

You can edit, replace or remove any tab part or add personal notes – all changes will be seen only by you.

Personal tabs can be accessed anytime from any device, even offline.
Learn more »
comments
print report bad tab
5 comments total. Showing first comments. show 1 bad comment
-2 reply
thomeboy 10 Feb 02, 2009 12:43 PM

tab looks good except at the top you posted G and Gm wrong. you have them on the wrong fret making it a C

0 reply
limbodean43 10 Feb 25, 2009 03:25 AM

Intro guitar:
-------------------------------7---9---10-----10---12-10---10------|
--10----7---10-----10-------10----------------11-----------10------|
---------------9-------7-------------------------------------------|
-------------------------------------------------------------------|
-------------------------------------------------------------------|
-------------------------------------------------------------------|

i copied this one from the comments of the better version

T´he intro chords are:
D A A7 Bm G
E---2---0---0---2---3-----------
B---3---2---2---3---0-----------
G---2---2---0---4---0-----------
D---0---2---2---4---0-----------
A-------0---0---2---2-----------
E-------------------3-----------
theres sometihng upside down in the chorus:

"i love you" G, Gm, D

no thanks to me, im just helping

guest
You may want to rate the tab now too:
select rating
Wanna post a correction for this tab? Suggest correction