Oops, an error
Loading. Please wait.

Hate I Really Dont Like You tab

version 2
version 2

Whole song

Interactive

67,675 views 39 this week
31 commentsread comments
1 2 3 4 5
x 38
add to favorites
×
Save as Personal and add changes to this tab that will be seen only by you. Learn more ›
×
You can save this tab as Personal to edit and correct it or add notes. All changes will be seen only by you. Learn more »
launch autoscroll
font size
0
reset
how to read this tab
guitar tuner
edit
Autoscroll
slow
fast
+/-
esc
set tempo
stop
Author
Difficulty
Hate… I Really Don't Like You  by: Plain White T's



Tab by: Aaron Meredith

Standard Tuning: (E-A-D-G-B-e)


~ = let ring
. = palm-mute (pm)
/ = slide up
\ = slide down



Intro: Guitar 1           
e|--------||--------------------------------------------|
B|--------||--------------------------------------------|
G|--------||--6~---6~--------------4~---4~--------------|x2
D|--6~~~--||--6~---6~---4~-4~-4~---4~---4~---2~-2~-2~---|
A|--6~~~--||--4~---4~---4~-4~-4~---2~---2~---2~-2~-2~---|
E|--4~~~--||------------2~-2~-2~-------------0~-0~-0~---|


Intro: Guitar 2           
e|--------||------------------------------------------------|
B|--------||--------------------------------7------9--7--5--|
G|--4~~~--||--------------------6~---4~-6/8---8----9--8--6--|x2
D|--6~~~--||-------6--------4-7-----------------9-----------|
A|--6~~~--||--4~-7---7-4-7----------------------------------|
E|--4~~~--||------------------------------------------------|



Verse: (played quietly)
e|----------------------------------|
B|----------------------------------|
G|--6~--6----------4~--4------------|x2
D|--6~--6--4~--4---4~--4--2~--2-----|
A|--4~--4--4~--4---2~--2--2~--2-----|
E|---------2~--2----------0~--0-----|


Pre-Chorus
e|------------------------------------|
B|------------------------------------|
G|------------------------------------|
D|--7~-7~-7~-7~-7~-7~-7~-7~-6~~~~~~~--|
A|--7~-7~-7~-7~-7~-7~-7~-7~-6~~~~~~~--|
E|--5~-5~-5~-5~-5~-5~-5~-5~-4~~~~~~~--|




Chorus:
e|---------------------------------|
B|---------------------------------|
G|--6~--6----------4~--4--2~--2----|x2
D|--6~--6--2~--2---4~--4--2~--2----|
A|--4~--4--2~--2---2~--2--0~--0----|
E|---------0~--0-------------------|

e|--------------------------------------------------|
B|--4~-4~-4~-4--------------4~-4~-4~-4--------------|
G|--6~-6~-6~-6--2~-2~-2~-2--4~-4~-4~-4--5~-5~-5~-5--|
D|--6~-6~-6~-6--4~-4~-4~-4--4~-4~-4~-4--6~-6~-6~-6--|
A|--4~-4~-4~-4--4~-4~-4~-4--2~-2~-2~-2--6~-6~-6~-6--|
E|--------------2~-2~-2~-2--------------4~-4~-4~-4--|

e|------------------------------------------|
B|--4~-4~-4~-4--------------4~-4~-4~-4~-4---|
G|--6~-6~-6~-6--1~-1~-1~-1--4~-4~-4~-4~-4---|
D|--6~-6~-6~-6--2~-2~-2~-2--4~-4~-4~-4~-4---|
A|--4~-4~-4~-4--2~-2~-2~-2--2~-2~-2~-2~-2---|
E|--------------0~-0~-0~-0------------------|



REPEAT INTRO:

REPEAT VERSE: 

REPEAT PRE-CHORUS:



Chorus 2:
e|---------------------------------|
B|---------------------------------|
G|--6~--6----------4~--4--2~--2----|x2
D|--6~--6--2~--2---4~--4--2~--2----|
A|--4~--4--2~--2---2~--2--0~--0----|
E|---------0~--0-------------------|

e|--------------------------------------------------|
B|--4~-4~-4~-4--------------4~-4~-4~-4--------------|
G|--6~-6~-6~-6--2~-2~-2~-2--4~-4~-4~-4--5~-5~-5~-5--|
D|--6~-6~-6~-6--4~-4~-4~-4--4~-4~-4~-4--6~-6~-6~-6--|
A|--4~-4~-4~-4--4~-4~-4~-4--2~-2~-2~-2--6~-6~-6~-6--|
E|--------------2~-2~-2~-2--------------4~-4~-4~-4--|

e|--------------------------------------------------|
B|--4~-4~-4~-4--------------4~-4~-4~-4~-4~-4~-4~-4--|
G|--6~-6~-6~-6--1~-1~-1~-1--4~-4~-4~-4~-4~-4~-4~-4--|
D|--6~-6~-6~-6--2~-2~-2~-2--4~-4~-4~-4~-4~-4~-4~-4--|
A|--4~-4~-4~-4--2~-2~-2~-2--2~-2~-2~-2~-2~-2~-2~-2--|
E|--------------0~-0~-0~-0--------------------------|




Bridge: 
e|--------------------------------------------------|
B|--------------------------------------------------|
G|--------------------------------------------------|
D|--4--4~-4~-4~-4~-4~-4~-4--6--6~-6~-6~-6--6~-6~-6--|
A|--4~-4~-4~-4~-4~-4~-4~-4--6--6~-6~-6~-6--6~-6~-6--|
E|--2~-2~-2~-2~-2~-2~-2~-2--4~-4~-4~-4~-4~-4~-4~-4--|

e|--------------------------------------------------|
B|--------------------------------------------------|
G|--------------------------------------------------|
D|--------------------------------------------6~-6~-|
A|--4--4--4--4--4--4--4--4--6--6--6--6--6~-6~-6~-6~-|
E|--2--2--2--2--2--2--2--2--4--4--4--4--4~-4~-4~-4~-|
pm  .  .  .  .  .  .  .  .  .  .  .  . 


REPEAT INTRO: (x4)

REPEAT PRE-CHORUS:

REPEAT CHORUS 2:

REPEAT INTRO: (x4)

REPEAT INTRO: (Guitar 2 only- x2)

THE END

            
            
Suggest correction
Creating personal tab
Creating personal tab
You can edit any tab online and save it as your Personal.

You can edit, replace or remove any tab part or add personal notes – all changes will be seen only by you.

Personal tabs can be accessed anytime from any device, even offline.
Learn more »
comments
print report bad tab
31 comments total. Showing first comments.
0 reply
UGROQFAN 132 Nov 06, 2006 02:46 PM

coooooll! :)
sweet!

0 reply
VOS_1st_Guitar 10 Nov 06, 2006 03:20 PM

finally someone wrote the intro correct NICE TAB MAN

+3 reply
Schizopathic 82 Nov 06, 2006 07:21 PM

Your intro is a TINY bit off. It should go like so

e
B------------------------4-7-4-----9-7-5
G----------------------4-------4---9-8-6
D------6--------4-7
A--4-7---7-4--6
E

to me it sounds better, just a couple of notes were off, it's basically the same, just on different strings.

guest
You may want to rate the tab now too:
select rating
Wanna post a correction for this tab? Suggest correction