Oops, an error
Loading. Please wait.

Welcome To Mystery bass

995 views 3 this week
no commentswrite comment
1 2 3 4 5
1 last vote to show rating
add to favorites
×
Save as Personal and add changes to this tab that will be seen only by you. Learn more ›
×
You can save this tab as Personal to edit and correct it or add notes. All changes will be seen only by you. Learn more »
launch autoscroll
font size
0
reset
guitar tuner
edit
Autoscroll
slow
fast
+/-
esc
set tempo
stop
Author
+++++++++++++++++++++++++++++++++++++++
| Plain White T's- Welcome To Mystery |
+++++++++++++++++++++++++++++++++++++++


"Imagine a room where the flowers they bloom..."

Tuning: EADG


Pre-Chorus
"Blue treats of and velvet skies..."
1.
G|-------------------------------------------|
D|-3~---3-5-6--------------------------------|
A|------------3~---3~------------------------|
E|----------------------4~---4-4-3-1~---1~---|

"Oooh..."
2.
G|-12-------12-------12-------12-------12-------12-------|
D|----13-------13-------13-------13-------13-------13----|
A|-------13-------13-------13-------13-------13-------13-|
E|-------------------------------------------------------|

3.
G|-12-------12-------12-----------------|
D|----12-------12-------12--------------|
A|-------10-------10-------10-----------|
E|----------------------------3~--------|

Chorus
"This is a place where your mind can escape..."
4.
G|------------------------------------------------------------------|
D|------------------------------------------------------------------|
A|-6~---6~---1~---1~---3~---3~---6~---6~----------------------------|
E|-----------------------------------------4~---4~---3~---3~--------|

Verse
"Imagine a city..."
5.
G|-----------------------------------------------------------------------------------|
D|------------------------------------5~---------------------------------------5~--4-|
A|-3~--------3~---------------------------1-3~--------3~-----------------------------|
E|------3~--------3~---4~---4~---3~--------------3~--------3~---4~---4~---3~---------|

Pre-Chorus
"Blue treats of and veltet skies..."
6.
G|-------------------------------------------|
D|-3~---3-5-6--------------------------------|
A|------------3~---3~------------------------|
E|----------------------4~---4-4-3-1~---1~---|

"Oooh..."
7.
G|-12-------12-------12-------12-------12-------12-------|
D|----13-------13-------13-------13-------13-------13----|
A|-------13-------13-------13-------13-------13-------13-|
E|-------------------------------------------------------|

8.
G|-12-------12-------12-----------------|
D|----12-------12-------12--------------|
A|-------10-------10-------10-----------|
E|----------------------------3~--------|

Chorus
"This is a place where your mind can escape..."
9.
G|------------------------------------------------------------------|
D|------------------------------------------------------------------|
A|-6~---6~---1~---1~---3~---3~---6~---6~----------------------------|
E|-----------------------------------------4~---4~---3~---3~--------|

Outro
10.
G|----------------------|
D|----------------------|
A|-3~--------3~-----3-4-|
E|------3~--------3-----|

Bridge
11.
G|----------------------------------------------------------------------------------|
D|----------------------------------------------------------------------------5~--4-|
A|-5~--------5~--------5~--------5~------2-3~--------3~--------3~--------3~---------|
E|------5~--------5~--------5~--------5~--------3~--------3~--------3~--------------|

Pre-Chorus
"Blue treats of and veltet skies..."
12.
G|-------------------------------------------|
D|-3~---3-5-6--------------------------------|
A|------------3~---3~------------------------|
E|----------------------4~---4-4-3-1~---1~---|

"Oooh..."
13.
G|-12-------12-------12-------12-------12-------12-------|
D|----13-------13-------13-------13-------13-------13----|
A|-------13-------13-------13-------13-------13-------13-|
E|-------------------------------------------------------|

14.
G|-12-------12-------12-----------------|
D|----12-------12-------12--------------|
A|-------10-------10-------10-----------|
E|----------------------------3~--------|

3:26

"Oooh..."
15.
G|-12-------12-------12-------12-------12-------12-------|
D|----13-------13-------13-------13-------13-------13----|
A|-------13-------13-------13-------13-------13-------13-|
E|-------------------------------------------------------|

16.
G|-12-------12-------12-----------------|
D|----12-------12-------12--------------|
A|-------10-------10-------10-----------|
E|----------------------------3~--------|

Chorus
"This is a place where your mind can escape..."
17.
G|-------------------------------------------------------------|
D|-------------------------------------------------------------|
A|-6~---6~---1~---1~---3~---3~---6~---6~-----------------------|--x2
E|-----------------------------------------4~---4~---3~---3~---|

18.
G|------------------------------------|
D|------5~--------5~--------5~--------|
A|------------------------------------|
E|-3~--------3~--------3~-------------|

Outro
19.
G|--------------------------|
D|--------------------------|
A|-3~--------3~---3~--------|
E|------3~------3-----------|


Thanks please rate!!!


Lyrics:

Imagine a place you can always escape to
An island off the coast of nowhere
A new destination of your own creation
Just waiting till you choose to go there

Blue treats of and velvet skies
Blue ready to blow your mind

This is a place where your mind can escape
All the problems today and go far, far away
This is a time with no history
Welcome to mystery

Imagine a city where everything's pretty
And you sir, you rule the kingdom
You call the shots you can do what you want to
Oh just imagine the freedom

Imagine a room where the flowers they bloom
Through the cracks in the floor and the ceiling
Just you and the missus and roses and kisses
My, what a wonderful feeling

Feel no misery
Come and visit me
Welcome to mystery 



+++++++++++++++++++++++++++++++++
| Raileff                       |
| Underground__Dora@Hotmail.Com |
+++++++++++++++++++++++++++++++++

            
            
Suggest correction
Creating personal tab
Creating personal tab
You can edit any tab online and save it as your Personal.

You can edit, replace or remove any tab part or add personal notes – all changes will be seen only by you.

Personal tabs can be accessed anytime from any device, even offline.
Learn more »
Give kudos to tab author, rate the tab!
1 2 3 4 5
comments
print report bad tab
guest
You may want to rate the tab now too:
select rating
Wanna post a correction for this tab? Suggest correction