Oops, an error
Loading. Please wait.

Write You A Song tab

version 2
version 2

Whole song

Interactive

13,444 views 1 this week
3 commentsread comments
1 2 3 4 5
x 4
add to favorites
×
Save as Personal and add changes to this tab that will be seen only by you. Learn more ›
×
You can save this tab as Personal to edit and correct it or add notes. All changes will be seen only by you. Learn more »
launch autoscroll
font size
0
reset
how to read this tab
guitar tuner
edit
Autoscroll
slow
fast
+/-
esc
set tempo
stop
Author
Difficulty
Artist:Plain White Ts
Song:Write You A Song
CD:Every Second Counts(2006)
Tabbed by:fret13@columbus.rr.com
Tuning:Standard

OK, version 1 is pretty good but it didn't have
the electric guitar so this one has it :P. In 
other words, version 1 is great if you have an
acoustic guitar and this ones good if you have
either an acoustic or an electric. 
  If It's good please rate and I 
always like a comment that says it's good.
If it's bad then comment what's wrong and give
it a bad rating, check back on it in a few days
and it should be fixed, if it's still bad, repeat
until it's right :P. OK no more smilies here we go.

ACOUSTIC GUITAR
Intro
|--|
|--|
|--|
|--|
|--|
|--|

|--------0-0--------0-0--------------|
|----0-0-0-0----0-0-0-0--------------|
|----1-1-1-1----1-1-1-1-4-6-9-8-9-11-|
|----2-2-2-2----2-2-2-2-x-x-x-x-x--x-|
|-2--2-2-----2--2-2-----2-4-7-6-7--9-|
|-0----------0-----------------------|
  ^this broken up chord could also be played
like this (below) but I like to be technical.
|-0--0-0-0-0-0--0-0-0-0--------------|
|-0--0-0-0-0-0--0-0-0-0--------------|
|-1--1-1-1-1-1--1-1-1-1-4-6-9-8-9-11-|
|-2--2-2-2-2-2--2-2-2-2-x-x-x-x-x--x-|
|-2--2-2-2-2-2--2-2-2-2-2-4-7-6-7--9-|
|-0--0-0-0-0-0--0-0-0-0--------------|
This could also apply for the verse

Verse
|--------0-0--------0-0-----------------------|x2
|----0-0-0-0----0-0-0-0-----------------------|
|----1-1-1-1----1-1-1-1-4--4-4-4-4-4--4-4-4-4-|
|----2-2-2-2----2-2-2-2-4--4-4-4-4-4--4-4-4-4-|
|-2--2-2-----2--2-2-----2--2-2-2-2-2--2-2-2-2-|
|-0----------0--------------------------------|

|-----------------------0--0-0-0-0------------|
|-2--2-2-2-2-2--2-2-2-2-0--0-0-0-0-5--5-5-5-5-|
|-2--2-2-2-2-2--2-2-2-2-1--1-1-1-1-6--6-6-6-6-|
|-2--2-2-2-2-2--2-2-2-2-2--2-2-2-2-6--6-6-6-6-|
|-0--0-0-0-0-0--0-0-0-0-2--2-2-2-2-4--4-4-4-4-|
|-----------------------0--0-0-0-0------------|

|---------------------------------------------|
|-2--2-2-2-2-2--2-2-2-2-----------------------|
|-2--2-2-2-2-2--2-2-2-2-4--4-4-4-4-4--4-4-4-4-|
|-2--2-2-2-2-2--2-2-2-2-4--4-4-4-4-4--4-4-4-4-|
|-0--0-0-0-0-0--0-0-0-0-2--2-2-2-2-2--2-2-2-2-|
|---------------------------------------------|

|--------0-0--------0-0-----------------------|x2
|----0-0-0-0----0-0-0-0-----------------------|
|----1-1-1-1----1-1-1-1-4--4-4-4-4-4--4-4-4-4-|
|----2-2-2-2----2-2-2-2-4--4-4-4-4-4--4-4-4-4-|
|-2--2-2-----2--2-2-----2--2-2-2-2-2--2-2-2-2-|
|-0----------0--------------------------------|

|-----------------------0--0-0-0-0------------|
|-2--2-2-2-2-2--2-2-2-2-0--0-0-0-0-5--5-5-5-5-|
|-2--2-2-2-2-2--2-2-2-2-1--1-1-1-1-6--6-6-6-6-|
|-2--2-2-2-2-2--2-2-2-2-2--2-2-2-2-6--6-6-6-6-|
|-0--0-0-0-0-0--0-0-0-0-2--2-2-2-2-4--4-4-4-4-|
|-----------------------0--0-0-0-0------------|

|---------------------------------------------|
|-2--2-2-2-2-2--2-2-2-2-----------------------|
|-2--2-2-2-2-2--2-2-2-2-4--4-4-4-4-4--4--4----|
|-2--2-2-2-2-2--2-2-2-2-4--4-4-4-4-4--4--4----|
|-0--0-0-0-0-0--0-0-0-0-2--2-2-2-2-2--2--2----|
|---------------------------------------------|

Chorus
|-----------------------0--0-0-0-0---------|
|-5--5-5-5-5-2--2-2-2-2-0--0-0-0-0---------|
|-6--6-6-6-6-2--2-2-2-2-1--1-1-1-1---------|
|-6--6-6-6-6-2--2-2-2-2-2--2-2-2-2---------|
|-4--4-4-4-4-0--0-0-0-0-2--2-2-2-2-----2---|
|-----------------------0--0-0-0-0-2/4---0-|

|-----------------------0--0-0-0-0---------|
|-5--5-5-5-5-2--2-2-2-2-0--0-0-0-0---------|
|-6--6-6-6-6-2--2-2-2-2-1--1-1-1-1-4--4--4-|
|-6--6-6-6-6-2--2-2-2-2-2--2-2-2-2-4--4--4-|
|-4--4-4-4-4-0--0-0-0-0-2--2-2-2-2-2--2--2-|
|-----------------------0--0-0-0-0---------|

|-----------------------0--0-0-0-0---------|
|-5--5-5-5-5-2--2-2-2-2-0--0-0-0-0---------|
|-6--6-6-6-6-2--2-2-2-2-1--1-1-1-1---------|
|-6--6-6-6-6-2--2-2-2-2-2--2-2-2-2---------|
|-4--4-4-4-4-0--0-0-0-0-2--2-2-2-2-----2---|
|-----------------------0--0-0-0-0-2/4---0-|

|-----------------------0--0-0-0-0------------|
|-2--2-2-2-2-2--2-2-2-2-0--0-0-0-0------------|
|-2--2-2-2-2-2--2-2-2-2-1--1-1-1-1-4--4-4-4-4-|
|-2--2-2-2-2-2--2-2-2-2-2--2-2-2-2-4--4-4-4-4-|
|-0--0-0-0-0-0--0-0-0-0-2--2-2-2-2-2--2-2-2-2-|
|-----------------------0--0-0-0-0------------|

Post - Chorus
|--------0-0--------0-0--------------|
|----0-0-0-0----0-0-0-0--------------|
|----1-1-1-1----1-1-1-1-4-6-9-8-9-11-|
|----2-2-2-2----2-2-2-2-x-x-x-x-x--x-|
|-2--2-2-----2--2-2-----2-4-7-6-7--9-|
|-0----------0-----------------------|

Verse
|--------0-0--------0-0-----------------------|x2
|----0-0-0-0----0-0-0-0-----------------------|
|----1-1-1-1----1-1-1-1-4--4-4-4-4-4--4-4-4-4-|
|----2-2-2-2----2-2-2-2-4--4-4-4-4-4--4-4-4-4-|
|-2--2-2-----2--2-2-----2--2-2-2-2-2--2-2-2-2-|
|-0----------0--------------------------------|

|-----------------------0--0-0-0-0------------|
|-2--2-2-2-2-2--2-2-2-2-0--0-0-0-0-5--5-5-5-5-|
|-2--2-2-2-2-2--2-2-2-2-1--1-1-1-1-6--6-6-6-6-|
|-2--2-2-2-2-2--2-2-2-2-2--2-2-2-2-6--6-6-6-6-|
|-0--0-0-0-0-0--0-0-0-0-2--2-2-2-2-4--4-4-4-4-|
|-----------------------0--0-0-0-0------------|

|---------------------------------------------|
|-2--2-2-2-2-2--2-2-2-2-----------------------|
|-2--2-2-2-2-2--2-2-2-2-4--4-4-4-4-4--4-4-4-4-|
|-2--2-2-2-2-2--2-2-2-2-4--4-4-4-4-4--4-4-4-4-|
|-0--0-0-0-0-0--0-0-0-0-2--2-2-2-2-2--2-2-2-2-|
|---------------------------------------------|

Chorus
|-----------------------0--0-0-0-0---------|
|-5--5-5-5-5-2--2-2-2-2-0--0-0-0-0---------|
|-6--6-6-6-6-2--2-2-2-2-1--1-1-1-1---------|
|-6--6-6-6-6-2--2-2-2-2-2--2-2-2-2---------|
|-4--4-4-4-4-0--0-0-0-0-2--2-2-2-2-----2---|
|-----------------------0--0-0-0-0-2/4---0-|

|-----------------------0--0-0-0-0---------|
|-5--5-5-5-5-2--2-2-2-2-0--0-0-0-0---------|
|-6--6-6-6-6-2--2-2-2-2-1--1-1-1-1-4--4--4-|
|-6--6-6-6-6-2--2-2-2-2-2--2-2-2-2-4--4--4-|
|-4--4-4-4-4-0--0-0-0-0-2--2-2-2-2-2--2--2-|
|-----------------------0--0-0-0-0---------|

|-----------------------0--0-0-0-0---------|
|-5--5-5-5-5-2--2-2-2-2-0--0-0-0-0---------|
|-6--6-6-6-6-2--2-2-2-2-1--1-1-1-1---------|
|-6--6-6-6-6-2--2-2-2-2-2--2-2-2-2---------|
|-4--4-4-4-4-0--0-0-0-0-2--2-2-2-2-----2---|
|-----------------------0--0-0-0-0-2/4---0-|

|-----------------------0--0-0-0-0------------|
|-2--2-2-2-2-2--2-2-2-2-0--0-0-0-0------------|
|-2--2-2-2-2-2--2-2-2-2-1--1-1-1-1-4--4-4-4-4-|
|-2--2-2-2-2-2--2-2-2-2-2--2-2-2-2-4--4-4-4-4-|
|-0--0-0-0-0-0--0-0-0-0-2--2-2-2-2-2--2-2-2-2-|
|-----------------------0--0-0-0-0------------|

Bridge
|-----------------------0--0-0-0-0---------|x3
|-2--2-2-2-2-2--2-2-2-2-0--0-0-0-0---------|
|-2--2-2-2-2-2--2-2-2-2-1--1-1-1-1-4--4--4-|
|-2--2-2-2-2-2--2-2-2-2-2--2-2-2-2-4--4--4-|
|-0--0-0-0-0-0--0-0-0-0-2--2-2-2-2-2--2--2-|
|-----------------------0--0-0-0-0---------|

Breakdown
|-----------------------0--0-0-0-0---------|
|-5--5-5-5-5-2--2-2-2-2-0--0-0-0-0---------|
|-6--6-6-6-6-2--2-2-2-2-1--1-1-1-1---------|
|-6--6-6-6-6-2--2-2-2-2-2--2-2-2-2---------|
|-4--4-4-4-4-0--0-0-0-0-2--2-2-2-2-----2---|
|-----------------------0--0-0-0-0-2/4---0-|

|-----------------------0--0-0-0-0---------|
|-5--5-5-5-5-2--2-2-2-2-0--0-0-0-0---------|
|-6--6-6-6-6-2--2-2-2-2-1--1-1-1-1-4--4--4-|
|-6--6-6-6-6-2--2-2-2-2-2--2-2-2-2-4--4--4-|
|-4--4-4-4-4-0--0-0-0-0-2--2-2-2-2-2--2--2-|
|-----------------------0--0-0-0-0---------|

|-----------------------0--0-0-0-0---------|
|-5--5-5-5-5-2--2-2-2-2-0--0-0-0-0---------|
|-6--6-6-6-6-2--2-2-2-2-1--1-1-1-1---------|
|-6--6-6-6-6-2--2-2-2-2-2--2-2-2-2---------|
|-4--4-4-4-4-0--0-0-0-0-2--2-2-2-2-----2---|
|-----------------------0--0-0-0-0-2/4---0-|

|-----------------------0--0-0-0-0------------|
|-2--2-2-2-2-2--2-2-2-2-0--0-0-0-0------------|
|-2--2-2-2-2-2--2-2-2-2-1--1-1-1-1-4--4-4-4-4-|
|-2--2-2-2-2-2--2-2-2-2-2--2-2-2-2-4--4-4-4-4-|
|-0--0-0-0-0-0--0-0-0-0-2--2-2-2-2-2--2-2-2-2-|
|-----------------------0--0-0-0-0------------|

Verse 2
|--------0-0--------0-0-----------------------|x2
|----0-0-0-0----0-0-0-0-----------------------|
|----1-1-1-1----1-1-1-1-4--4-4-4-4-4--4-4-4-4-|
|----2-2-2-2----2-2-2-2-4--4-4-4-4-4--4-4-4-4-|
|-2--2-2-----2--2-2-----2--2-2-2-2-2--2-2-2-2-|
|-0----------0--------------------------------|

|-----------------------0--0-0-0-0------------|
|-2--2-2-2-2-2--2-2-2-2-0--0-0-0-0-5--5-5-5-5-|
|-2--2-2-2-2-2--2-2-2-2-1--1-1-1-1-6--6-6-6-6-|
|-2--2-2-2-2-2--2-2-2-2-2--2-2-2-2-6--6-6-6-6-|
|-0--0-0-0-0-0--0-0-0-0-2--2-2-2-2-4--4-4-4-4-|
|-----------------------0--0-0-0-0------------|

|---------------------------------------------|
|-2--2-2-2-2-2--2-2-2-2-----------------------|
|-2--2-2-2-2-2--2-2-2-2-4--4-4-4-4-4--4-4-4-4-|
|-2--2-2-2-2-2--2-2-2-2-4--4-4-4-4-4--4-4-4-4-|
|-0--0-0-0-0-0--0-0-0-0-2--2-2-2-2-2--2-2-2-2-|
|---------------------------------------------|

|---------------------------------------------|
|-2--2-2-2-2-2--2-2-2-2-----------------------|
|-2--2-2-2-2-2--2-2-2-2-4--4-4-4-4-4--4--4----|
|-2--2-2-2-2-2--2-2-2-2-4--4-4-4-4-4--4--4----|
|-0--0-0-0-0-0--0-0-0-0-2--2-2-2-2-2--2--2----|
|---------------------------------------------|

Chorus Figure 2
|---------0(0)----------------0~-x-x--x-|
|-5~--2~--0(0)--------5~--2~--0~-x-x--x-|
|-6~--2~--1(1)--------6~--2~--1~-x-x--x-|
|-6~--2~--2(2)--------6~--2~--2~-x-x--x-|
|-4~--0~--2(2)----0---4~--0~--2~-x-x--x-|
|---------0(0)2/4---0---------0~-x-x--x-|

|-----------------------0--0-0-0-0---------|
|-5--5-5-5-5-2--2-2-2-2-0--0-0-0-0---------|
|-6--6-6-6-6-2--2-2-2-2-1--1-1-1-1---------|
|-6--6-6-6-6-2--2-2-2-2-2--2-2-2-2---------|
|-4--4-4-4-4-0--0-0-0-0-2--2-2-2-2-----2---|
|-----------------------0--0-0-0-0-2/4---0-|

|-----------------------0--0-0-0-0------------|
|-2--2-2-2-2-2--2-2-2-2-0--0-0-0-0------------|
|-2--2-2-2-2-2--2-2-2-2-1--1-1-1-1-4--4-4-4-4-|
|-2--2-2-2-2-2--2-2-2-2-2--2-2-2-2-4--4-4-4-4-|
|-0--0-0-0-0-0--0-0-0-0-2--2-2-2-2-2--2-2-2-2-|
|-----------------------0--0-0-0-0------------|

Chorus
|-----------------------0--0-0-0-0---------|
|-5--5-5-5-5-2--2-2-2-2-0--0-0-0-0---------|
|-6--6-6-6-6-2--2-2-2-2-1--1-1-1-1---------|
|-6--6-6-6-6-2--2-2-2-2-2--2-2-2-2---------|
|-4--4-4-4-4-0--0-0-0-0-2--2-2-2-2-----2---|
|-----------------------0--0-0-0-0-2/4---0-|

|-----------------------0--0-0-0-0---------|
|-5--5-5-5-5-2--2-2-2-2-0--0-0-0-0---------|
|-6--6-6-6-6-2--2-2-2-2-1--1-1-1-1-4--4--4-|
|-6--6-6-6-6-2--2-2-2-2-2--2-2-2-2-4--4--4-|
|-4--4-4-4-4-0--0-0-0-0-2--2-2-2-2-2--2--2-|
|-----------------------0--0-0-0-0---------|

|-----------------------0--0-0-0-0---------|
|-5--5-5-5-5-2--2-2-2-2-0--0-0-0-0---------|
|-6--6-6-6-6-2--2-2-2-2-1--1-1-1-1---------|
|-6--6-6-6-6-2--2-2-2-2-2--2-2-2-2---------|
|-4--4-4-4-4-0--0-0-0-0-2--2-2-2-2-----2---|
|-----------------------0--0-0-0-0-2/4---0-|

|-----------------------0--0-0-0-0-----------------------|
|-2--2-2-2-2-2--2-2-2-2-0--0-0-0-0-----------------------|
|-2--2-2-2-2-2--2-2-2-2-1--1-1-1-1-4--4-4-4-4-4--4-4-4-4-|
|-2--2-2-2-2-2--2-2-2-2-2--2-2-2-2-4--4-4-4-4-4--4-4-4-4-|
|-0--0-0-0-0-0--0-0-0-0-2--2-2-2-2-2--2-2-2-2-2--2-2-2-2-|
|-----------------------0--0-0-0-0-----------------------|

Outro
|--------0-0--------0-0------------------|
|----0-0-0-0----0-0-0-0------------------|
|----1-1-1-1----1-1-1-1-4-6-9-8-9-11-13~-|
|----2-2-2-2----2-2-2-2-x-x-x-x-x--x--x~-|
|-2--2-2-----2--2-2-----2-4-7-6-7--9-11~-|
|-0----------0------------------------0~-|
=========================================================================
GUITAR 2
Slightly Distorted
Doesn't come in until the Chorus
Chorus
|---------0~------------0~----------------0~--------------------------|
|-5~--2~--0~----5~--2~--0~--------5~--2~--0~--0~--0~-0--0-0-0-0-------|
|-6~--2~--1~----6~--2~--1~--4-4-4-6~--2~--1~--2~--2~-1--1-1-1-1-4-4-4-|
|-6~--2~--2~----6~--2~--2~--4-4-4-6~--2~--2~--2~--2~-2--2-2-2-2-4-4-4-|
|-4~--0~--2~----4~--0~--2~--2-2-2-4~--0~--2~--0~--0~-2--2-2-2-2-2-2-2-|
|---------0~------------0~----------------0~---------0--0-0-0-0-------|
Verse - Doesn't play
Chorus
|---------0~------------0~----------------0~--------------------------|
|-5~--2~--0~----5~--2~--0~--------5~--2~--0~--0~--0~-0--0-0-0-0-------|
|-6~--2~--1~----6~--2~--1~--4-4-4-6~--2~--1~--2~--2~-1--1-1-1-1-4-4-4-|
|-6~--2~--2~----6~--2~--2~--4-4-4-6~--2~--2~--2~--2~-2--2-2-2-2-4-4-4-|
|-4~--0~--2~----4~--0~--2~--2-2-2-4~--0~--2~--0~--0~-2--2-2-2-2-2-2-2-|
|---------0~------------0~----------------0~---------0--0-0-0-0-------|

Bridge
|------------------------------------------|x3
|-0--0-0-0-0-0--0-0-0-0-0--0-0-0-0---------|
|-2--2-2-2-2-2--2-2-2-2-1--1-1-1-1-4--4--4-|
|-2--2-2-2-2-2--2-2-2-2-2--2-2-2-2-4--4--4-|
|-0--0-0-0-0-0--0-0-0-0-2--2-2-2-2-2--2--2-|
|-----------------------0--0-0-0-0---------|

Breakdown
|-9-9-9-9-9-9-9--9--9--9--9--9--12-12-12-12-12-12-12-12-12-12-12-12-|
|-9-9-9-9-9-9-10-10-10-10-10-10--9--9--9--9--9--9--9--9--9--9--9--9-|
|-9-9-9-9-9-9-9--9--9--9--9--9---9--9--9--9--9--9--9--9--9--9--9--9-|
|-------------------------------------------------------------------|
|-------------------------------------------------------------------|
|-------------------------------------------------------------------|

|-9-9-9-9-9-9-9--9--9--9--9--9-12-12-12-12-11-11-11-11-11-11-11-11-|
|-9-9-9-9-9-9-9-10-10-10-10-10--9--9--9--9--9--9-12-12-12-12-12-12-|
|-9-9-9-9-9-9-9--9--9--9--9--9--9--9--9--9--9--9--9--9--9--9--9--9-|
|------------------------------------------------------------------|
|------------------------------------------------------------------|
|------------------------------------------------------------------|

|-9-9-9-9-9-9-9--9--9--9--9--9--12-12-12-12-12-12-12-12-12-12-12-12-|
|-9-9-9-9-9-9-10-10-10-10-10-10--9--9--9--9--9--9--9--9--9--9--9--9-|
|-9-9-9-9-9-9-9--9--9--9--9--9---9--9--9--9--9--9--9--9--9--9--9--9-|
|-------------------------------------------------------------------|
|-------------------------------------------------------------------|
|-------------------------------------------------------------------|

|-------0----------------2-12*-|
|-----0---0--------0---4-------|
|---2-------2----1---4---------|
|-4------------2---------------|
|------------------------------|
|------------------------------|
Verse
Chorus Figure 2
|---------0(0)------------0~-x-x--x-|
|-5~--2~--0(0)----5~--2~--0~-x-x--x-|
|-6~--2~--1(1)----6~--2~--1~-x-x--x-|
|-6~--2~--2(2)----6~--2~--2~-x-x--x-|
|-4~--0~--2(2)----4~--0~--2~-x-x--x-|
|---------0(0)------------0~-x-x--x-|

Chorus
|---------0~------------0~----------------0~--------------------------|
|-5~--2~--0~----5~--2~--0~--------5~--2~--0~--0~--0~-0--0-0-0-0-------|
|-6~--2~--1~----6~--2~--1~--4-4-4-6~--2~--1~--2~--2~-1--1-1-1-1-4-4-4-|
|-6~--2~--2~----6~--2~--2~--4-4-4-6~--2~--2~--2~--2~-2--2-2-2-2-4-4-4-|
|-4~--0~--2~----4~--0~--2~--2-2-2-4~--0~--2~--0~--0~-2--2-2-2-2-2-2-2-|
|---------0~------------0~----------------0~---------0--0-0-0-0-------|

Chorus 2
|-9-9-9-9-9-9-9--9--9--9--9--9--12-12-12-12-12-12-12-12-12-12-12-12-|
|-9-9-9-9-9-9-10-10-10-10-10-10--9--9--9--9--9--9--9--9--9--9--9--9-|
|-9-9-9-9-9-9-9--9--9--9--9--9---9--9--9--9--9--9--9--9--9--9--9--9-|
|-------------------------------------------------------------------|
|-------------------------------------------------------------------|
|-------------------------------------------------------------------|

|-9-9-9-9-9-9-9--9--9--9--9--9-12-12-12-12-11-11-11-11-11-11-11-11-|
|-9-9-9-9-9-9-9-10-10-10-10-10--9--9--9--9--9--9-12-12-12-12-12-12-|
|-9-9-9-9-9-9-9--9--9--9--9--9--9--9--9--9--9--9--9--9--9--9--9--9-|
|------------------------------------------------------------------|
|------------------------------------------------------------------|
|------------------------------------------------------------------|

|-9-9-9-9-9-9-9--9--9--9--9--9--12-12-12-12-12-12-12-12-12-12-12-12-|
|-9-9-9-9-9-9-10-10-10-10-10-10--9--9--9--9--9--9--9--9--9--9--9--9-|
|-9-9-9-9-9-9-9--9--9--9--9--9---9--9--9--9--9--9--9--9--9--9--9--9-|
|-------------------------------------------------------------------|
|-------------------------------------------------------------------|
|-------------------------------------------------------------------|

Outro
|-------0----------------0-----0-12*-|
|-----0---0--------0---4-----4-------|
|---2-------2----1---4-----4---------|
|-4------------2---------------------|
|------------------------------------|
|------------------------------------|

There you go.

| /  slide up
| \  slide down
| h  hammer-on
| p  pull-off
| ~  vibrato
| *  harmonic
| x  Mute note

            
            
Suggest correction
Creating personal tab
Creating personal tab
You can edit any tab online and save it as your Personal.

You can edit, replace or remove any tab part or add personal notes – all changes will be seen only by you.

Personal tabs can be accessed anytime from any device, even offline.
Learn more »
comments
print report bad tab
3 comments total.
0 reply
kanarf 106 Nov 16, 2007 06:24 PM

5 friggin pages

0 reply
grenday152 10 Dec 02, 2007 03:38 AM

your missing an e in the beginning lick after the e majors in the chords with the fourth string muted great tab
otherwise

0 reply
Randy K Paulson 10 Dec 29, 2008 04:29 PM

i havent played this song the way you tabbed it but it looks preety accurate to me

guest
You may want to rate the tab now too:
select rating
Wanna post a correction for this tab? Suggest correction