Oops, an error
Loading. Please wait.

Te Recuerdo Mas tab

by Plan B
28 views 1 this week
no commentswrite comment
1 2 3 4 5
3 more votes to show rating
add to favorites
×
Save as Personal and add changes to this tab that will be seen only by you. Learn more ›
×
You can save this tab as Personal to edit and correct it or add notes. All changes will be seen only by you. Learn more »
launch autoscroll
font size
0
reset
how to read this tab
guitar tuner
edit
Autoscroll
slow
fast
+/-
esc
set tempo
stop
* = dejar sonar
pm = palm mute

[Intro]
No he sacado aun el arpegio pero si las notas que lo acompañan :)
e|-------------------------------|
B|-------------------------------|
G|---------------------7-----9---|
D|---7-----4-----2-----7-----7---|
A|---7-----4-----2-----5-----7---|
E|---5-----2-----0---------------|

[Verso]
e|-----------|
B|-----------|
G|-----------|
D|-----7-----|
A|-----7-----|
E|-----5-----|
       *
'Esta mañana yo me desperte ...' (todo con pm)
e|------------------------------------------------------------------------
B|------------------------------------------------------------------------
G|------------------------------------------------------------------------
D|---4-4-4-4-4-4-4-4-4-4-4-4-4-4-4-4--2-2-2-2-2-2-2-2-2-2-2-2-2-2-2-2-----
A|---4-4-4-4-4-4-4-4-4-4-4-4-4-4-4-4--2-2-2-2-2-2-2-2-2-2-2-2-2-2-2-2-----
E|---2-2-2-2-2-2-2-2-2-2-2-2-2-2-2-2--0-0-0-0-0-0-0-0-0-0-0-0-0-0-0-0-----

  -----------------------------------------|
  -----------------------------------------|
  ---7-7-7-7-7-7-7-7--9-9-9-9-9-9-9-9------|
  ---7-7-7-7-7-7-7-7--9-9-9-9-9-9-9-9--7---|
  ---5-5-5-5-5-5-5-5--7-7-7-7-7-7-7-7--7---|
  -------------------------------------5---|
                                     *
[Pre-coro]
'Y si a la larga comprendo que ya ...' (todo con pm)
e|------------------------------------------------------------------------
B|------------------------------------------------------------------------
G|------------------------------------------------------------------------
D|---4-4-4-4-4-4-4-4-4-4-4-4-4-4-4-4--2-2-2-2-2-2-2-2-2-2-2-2-2-2-2-2-----
A|---4-4-4-4-4-4-4-4-4-4-4-4-4-4-4-4--2-2-2-2-2-2-2-2-2-2-2-2-2-2-2-2-----
E|---2-2-2-2-2-2-2-2-2-2-2-2-2-2-2-2--0-0-0-0-0-0-0-0-0-0-0-0-0-0-0-0-----

  --------------------------------------|
  --------------------------------------|
  ---7-7-7-7-7-7-7-7--9-9-9-9-9-9-9-9---|
  ---7-7-7-7-7-7-7-7--9-9-9-9-9-9-9-9---|
  ---5-5-5-5-5-5-5-5--7-7-7-7-7-7-7-7---|
  --------------------------------------|

[Coro]
'y es que te recuerdo mas ...'
e|-------------------------------------------------------------------------
B|-------------------------------------------------------------------------
G|-------------------------------------------------------------------------
D|--7-7-7-7-7-7-7-7-7-7-7-7-7-7-7-7--4-4-4-4-4-4-4-4-4-4-4-4-4-4-4-4-------
A|--7-7-7-7-7-7-7-7-7-7-7-7-7-7-7-7--4-4-4-4-4-4-4-4-4-4-4-4-4-4-4-4-------
E|--5-5-5-5-5-5-5-5-5-5-5-5-5-5-5-5--2-2-2-2-2-2-2-2-2-2-2-2-2-2-2-2-------

  ---------------------------------------------------------------------------|
  ---------------------------------------------------------------------------|
  ---7-7-7-7-7-7-7-7-7-7-7-7-7-7-7-7-------------------5-5-5-5-5-5-5-5-------| 2x
  ---7-7-7-7-7-7-7-7-7-7-7-7-7-7-7-7--7-7-7-7-7-7-7-7--5-5-5-5-5-5-5-5--7----|
  ---5-5-5-5-5-5-5-5-5-5-5-5-5-5-5-5--7-7-7-7-7-7-7-7--7-7-7-7-7-7-7-7--7----|
  ------------------------------------9-9-9-9-9-9-9-9-------------------5----|
                                                                      *
(Repite las notas del intro)

[verso]
e|-----------|
B|-----------|
G|-----------|
D|-----7-----|
A|-----7-----|
E|-----5-----|
       *
'Busco en la tele no hay nada que ver ...'
e|------------------------------------------------------------------------
B|------------------------------------------------------------------------
G|------------------------------------------------------------------------
D|---4-4-4-4-4-4-4-4-4-4-4-4-4-4-4-4--2-2-2-2-2-2-2-2-2-2-2-2-2-2-2-2-----
A|---4-4-4-4-4-4-4-4-4-4-4-4-4-4-4-4--2-2-2-2-2-2-2-2-2-2-2-2-2-2-2-2-----
E|---2-2-2-2-2-2-2-2-2-2-2-2-2-2-2-2--0-0-0-0-0-0-0-0-0-0-0-0-0-0-0-0-----

  -----------------------------------------|
  -----------------------------------------|
  ---7-7-7-7-7-7-7-7--9-9-9-9-9-9-9-9------|
  ---7-7-7-7-7-7-7-7--9-9-9-9-9-9-9-9--7---|
  ---5-5-5-5-5-5-5-5--7-7-7-7-7-7-7-7--7---|
  -------------------------------------5---|
                                     *
[Pre-coro]
'Y es que tanto me acostumbre ...'
e|------------------------------------------------------------------------
B|------------------------------------------------------------------------
G|------------------------------------------------------------------------
D|---4-4-4-4-4-4-4-4-4-4-4-4-4-4-4-4--2-2-2-2-2-2-2-2-2-2-2-2-2-2-2-2-----
A|---4-4-4-4-4-4-4-4-4-4-4-4-4-4-4-4--2-2-2-2-2-2-2-2-2-2-2-2-2-2-2-2-----
E|---2-2-2-2-2-2-2-2-2-2-2-2-2-2-2-2--0-0-0-0-0-0-0-0-0-0-0-0-0-0-0-0-----

  --------------------------------------|
  --------------------------------------|
  ---7-7-7-7-7-7-7-7--9-9-9-9-9-9-9-9---|
  ---7-7-7-7-7-7-7-7--9-9-9-9-9-9-9-9---|
  ---5-5-5-5-5-5-5-5--7-7-7-7-7-7-7-7---|
  --------------------------------------|

[Coro] 2x


[Solo]
En esta parte no estoy seguro sobre lo que esta entre () pero suena bien.
e|---------------------------------------------|
B|---------------------------------------------|
G|---------------------------------------------|
D|---(x-x-x-x-x-x-x-x)-5---(x-x-x-x-x-x-x-x)---|
A|---(x-x-x-x-x-x-x-x)-7---(x-x-x-x-x-x-x-x)---|
E|---(x-x-x-x-x-x-x-x)-7---(x-x-x-x-x-x-x-x)---|
                      *
e|----------------------------------------------------------------------------|
B|----------------------------------------------------------------------------|
G|---------------------------------------6-6---------------7-7----------------|
D|---7-7---------------9-9---------------6-6---------------7-7----------------|
A|---7-7----------5-5--9-9----------5-5--4-4----------5-5--5-5----------5-5---|
E|---5-5--5-5-4-4------7-7--5-5-4-4-----------5-5-4-4-----------5-5-4-4-------|

e|----------------------------------------------------------------------------|
B|----------------------------------------------------------------------------|
G|---------------------------------------6-6---------------7-7----------------|
D|---7-7---------------9-9---------------6-6---------------7-7----------------|
A|---7-7----------9-9--9-9----------9-9--4-4----------9-9--5-5----------9-9---|
E|---5-5--5-5-7-7------7-7--5-5-7-7-----------5-5-7-7-----------5-5-7-7-------|

e|----------------------------------------------------------------------------|
B|----------------------------------------------------------------------------|
G|---------------------------------------6-6---------------7-7----------------|
D|---7-7---------------9-9---------------6-6---------------7-7----------------|
A|---7-7----------5-5--9-9----------5-5--4-4----------5-5--5-5----------5-5---|
E|---5-5--5-5-4-4------7-7--5-5-4-4-----------5-5-4-4-----------5-5-4-4-------|

e|-------------------------------------------------------------------------------|
B|-------------------------------------------------------------------------------|
G|---------------------------------------6-6---------------7-7-------------------|
D|---7-7---------------9-9---------------6-6---------------7-7---------------7---|
A|---7-7--------5---5--9-9--------5---5--4-4--------5---5--5-5--------4-3-2--7---|
E|---5-5--5-5-4---4----7-7--5-5-4---4---------5-5-4---4---------7-5-3--------5---|

[Coro]  (se repite hasta el final)

That's it enjoy!


[Verso]

Esta mañana yo me desperte
pensando si hubo algo que pude hacer
para evitar lo inevitable
para enmendar todos mis errores

Y si a la larga comprendo que ya
era mejor este maldito final
que andar sufriendo cada dia mas
espero darme cuenta

[Coro]

Y es que te recuerdo mas (te recuerdo mas)
cuando miro en la oscuridad
cuando enfrento la soledad
mis horas son una eternidad

Y es que te recuerdo mas (te recuerdo mas)
cuando digo que te voy a olvidar
tu presencia me hace mucha falta
y tu ausencia por poco me mata

[Verso]

Busco en la tele no hay nada que ver
prendo la radio y la apago otra vez
es algo que llevo dentro de mi
es el recuerdo de que vivo sin ti

Y es que tanto me acostumbre
a tus besos tus caricias tambien
al suave roce de tu piel
al dulce encanto de tu ser

[Coro]

[Solo]

[Coro] (Se repite hasta el final)

Y es que te recuerdo mas...

Nota: Es el primera vez que saco un solo pero suena
bastante bien y el arpegio no lo saque
pero estan las notas.

Comentarios, correcciones, sugerencias o lo que sea:
nda45@

Arriba la musica ecuatoriana!

            
            
Suggest correction
Creating personal tab
Creating personal tab
You can edit any tab online and save it as your Personal.

You can edit, replace or remove any tab part or add personal notes – all changes will be seen only by you.

Personal tabs can be accessed anytime from any device, even offline.
Learn more »
Give kudos to tab author, rate the tab!
1 2 3 4 5
comments
print report bad tab
guest
Wanna post a correction for this tab? Suggest correction