Oops, an error
Loading. Please wait.

Un Lugar tab

by Plan B
47 views 1 this week
no commentswrite comment
1 2 3 4 5
3 more votes to show rating
add to favorites
×
Save as Personal and add changes to this tab that will be seen only by you. Learn more ›
×
You can save this tab as Personal to edit and correct it or add notes. All changes will be seen only by you. Learn more »
launch autoscroll
font size
0
reset
how to read this tab
guitar tuner
edit
Autoscroll
slow
fast
+/-
esc
set tempo
stop
Esta canción de PLANB es chepo espero que les guste


INTRO

  B5     E5     F5     A5        B5   E5     F5     A5     B5
-------------------------------------------------------------------
-------------------------------------------------------------------
-------------------------------------------------------------------
-99999-22222--444444-77777-----99999-22222-4x4x4x-7x7x7x--9--------
-99999-22222--444444-77777-----99999-22222-4x4x4x-7x7x7x--9--------
-77777-00000--222222-55555-----77777-00000-2x2x2x-5x5x5x--7--------

Verso:

B5      E5           F5       A5         B5        E5
Desde hace tiempo que   no paro de pensar  en tu sonrisa

  F5      A5     B5
--------------------------------------------------------------------
--------------------------------------------------------------------
--------------------------------------------------------------------
4x4x4x--7x7x7x---9--------------------------------------------------
4x4x4x--7x7x7x---9--------------------------------------------------
2x2x2x--5x5x5x---7--------------------------------------------------
en tus labios y en tu forma de mirar.


B5      E5           F5      A5         B5       E5
Yo me pongo a imaginar      como seria si; tu te quieras
 F5      A5     B5
---------------------------------------------------------------------
---------------------------------------------------------------------
---------------------------------------------------------------------
4x4x4x--7x7x7x-------------------------------------------------------
4x4x4x--7x7x7x-------------------------------------------------------
2x2x2x--5x5x5x-------------------------------------------------------
que te quiera solo tí y a nadie mas


CORO:

  E5    F5    B5     G#5
----------------------------------------------------------------------
----------------------------------------------------------------------
----------------------------------------------------------------------
-22222-44444-99999-666666---------------------------------------------
-22222-44444-99999-666666---------------------------------------------
-00000-22222-77777-444444---------------------------------------------

  E5    F5        B5           G#5
solo quiero un lugar....   en tu corazón
  E5    F5        B5           G#5
Solo quiero un lugar....   en tu vida mi amor
  E5    F5
Un lugar para
  B5     G#5    E5
-----------------------------------------------------------------------
-----------------------------------------------------------------------
-----------------------------------------------------------------------
9X9X9X--6X6X6X--2------------------------------------------------------
9X9X9X--6X6X6X--2------------------------------------------------------
7X7X7X--4X4X4X--0------------------------------------------------------
estar en tus brazos al fin

  E5    F5
Y saber que

  B5     G#5    E5
------------------------------------------------------------------------
------------------------------------------------------------------------
------------------------------------------------------------------------
9X9X9X--6X6X6X--2-------------------------------------------------------
9X9X9X--6X6X6X--2-------------------------------------------------------
7X7X7X--4X4X4X--0-------------------------------------------------------
siempre voy a estar junto a tí
  E5    F5
Solo quiero un lugar.........


DESPUES DEL CORO:

-------------------------------------------------------------------------
-------------------------------------------------------------------------
----8888----9999------8888-----------------------------------------------
-9--8888-6--9999--9---8888-6662------------------------------------------ 2X
-9--6666-6--7777--9---6666-6662------------------------------------------
-7-------4--------7--------4440------------------------------------------


VERSO II: EL MISMO RITMO QUE EL VERSO I


B5      E5           F5       A5
Desde hace tiempo que    me pierdo si no estas
B5        E5               F5              A5
es que no puedo concentrarme pienso en ti y en nadie mas.......

B5      E5           F5       A5
Yo te digo la verdad no paro de soñar
B5        E5               F5              A5
De que algun día tu me quieras y que sea realidad........


CORO:


INTERLUDE:
--------------------------------------------------------------------------
--------------------------------------------------------------------------
---4-3----4-3-----4-3---6-4-3-4------------------------------------------- 2X
------4------4-------4----------------------------------------------------
--------------------------------------------------------------------------
--------------------------------------------------------------------------

--------------------------------------------------------------------------
-------4-5-4-5-7--5-4-5-4-----4-2-----4-2----4-2-----4-2------------------
---4-6----------------------------4------4------4-------4-3-4-------------
--------------------------------------------------------------------------
--------------------------------------------------------------------------
--------------------------------------------------------------------------


CORO:


FINAL:
--------------------------------------------------------------------------
--------------------------------------------------------------------------
----8888----9999------8888----9999----------------------------------------
-9--8888-6--9999--9---8888--6-9999--9-------------------------------------
-9--6666-6--7777--9---6666--6-7777--9-------------------------------------
-7-------4--------7---------4-------7-------------------------------------


Cualquier problema que tengan con la tablatura me escriben a
MI mail.
                      RONK


-

            
            
Suggest correction
Creating personal tab
Creating personal tab
You can edit any tab online and save it as your Personal.

You can edit, replace or remove any tab part or add personal notes – all changes will be seen only by you.

Personal tabs can be accessed anytime from any device, even offline.
Learn more »
Give kudos to tab author, rate the tab!
1 2 3 4 5
comments
print report bad tab
guest
Wanna post a correction for this tab? Suggest correction