Oops, an error
Loading. Please wait.

This Love tab

version 2
version 2

Whole song

Interactive

10,514 views 15 this week
2 commentsread comments
1 2 3 4 5
x 3
add to favorites
×
Save as Personal and add changes to this tab that will be seen only by you. Learn more ›
×
You can save this tab as Personal to edit and correct it or add notes. All changes will be seen only by you. Learn more »
launch autoscroll
font size
0
reset
how to read this tab
guitar tuner
edit
Autoscroll
slow
fast
+/-
esc
set tempo
stop
Artist: Planetshakers
Album: Even Greater
Song: This Love
Key: Dm


Intro, Verse, bridge and outro
e|-----------------------------------------|
B|-----------------------------------------|
G|-----------------------------------------|  
D|-----------------------------------------|  
A|---3-3h5-0h3-3h5~------3-3h5-----5-5p3~--|
D|-0---------------0h3--------0h5----------| 

Rhythm Guitar

e|----------------|
B|----------------|
G|----------------|
D|-0-----3--5-----|  
A|-0-----3--5-----|
D|-0-----3--5-----|  



Pre-chorus (palm mutes)
e|-----|-----|-----|-----|------|
B|-----|-----|-----|-----|------|
G|-----|-----|-----|-----|------|
D|-x0--|-x3--|-x5--|-x8--|-x10--|  
A|-x0--|-x3--|-x5--|-x8--|-x10--|
D|-x0--|-x3--|-x5--|-x8--|-x10--|  


Chorus
e|-----------------------------------------------|
B|-----------------------------------------------|
G|-----------------------------------------------|  
D|-0-0-0-0-0-0-3-3-3-3-3-3-5-5-5-5-5-5-5-5-5-5-5-|  
A|-0-0-0-0-0-0-3-3-3-3-3-3-3-3-3-3-3-3-2-2-2-2-2-|
D|-0-0-0-0-0-0-3-3-3-3-3-3-----------------------| 
Hey Hey I'm in love with you......

e|-----------------------------------------------|
B|-----------------------------------------------|
G|-3-5-------------------------------------------|  
D|-3-5-7-7\--------------------------------------|
A|-1-3-4-4\--------------------------------------|
D|-----------------------------------------------|
No one can take this......


Intro

Verse

Pre-chorus

Chorus

Slighty different riff played once before bridge..
e|-----------------------------------------|
B|-----------------------------------------|
G|-----------------------------------------|  
D|------------3----------------------------|  
A|---3-3h5-3h5-5~-----3-3h5-----5-5p3~-----|
D|-0--------------0h3--------0h5-----------| 

Bridge 

Instrumental

Rhythm Guitar
e|----|-----|------|
B|----|-----|------|
G|----|-----|------|
D|-0--|--3--|--5---|  
A|-0--|--3--|--5---|
D|-0--|--3--|--5---|  

Chorus

Outro

| /  slide up
| \  slide down
| h  hammer-on
| p  pull-off
| ~  vibrato
| +  harmonic
| x  Mute note

By James Reid

            
            
Suggest correction
Creating personal tab
Creating personal tab
You can edit any tab online and save it as your Personal.

You can edit, replace or remove any tab part or add personal notes – all changes will be seen only by you.

Personal tabs can be accessed anytime from any device, even offline.
Learn more »
Give kudos to tab author, rate the tab!
1 2 3 4 5
comments
print report bad tab
2 comments total.
0 reply
Limobar 100 Aug 07, 2010 01:35 AM

e|-----------------------------------------------|
B|-----------------------------------------------|
G|-3-5-------------------------------------------|
D|-3-5-7-7\--------------------------------------|
A|-1-3-4-4\--------------------------------------|
D|-----------------------------------------------|
No one can take this......

Intro, Verse, bridge and outro
e|-----------------------------------------|
B|-----------------------------------------|
G|-----------------------------------------|
D|-----------------------------------------|
A|---3-3h5-3-3h5------3-3h5-----5-5p3------|
D|-0--------------3p0--------3h5-----------|

0 reply
_laijjoelliagi 10 Feb 13, 2015 08:17 PM

| / slide up
| \ slide down
| h hammer-on
| p pull-off
| ~ vibrato
| + harmonic
| x Mute note

what is this mean of? i don't understand....

guest
You may want to rate the tab now too:
select rating
Wanna post a correction for this tab? Suggest correction