Oops, an error
Loading. Please wait.

Sanatorium tab

866 views 3 this week
no commentswrite comment
1 2 3 4 5
2 more votes to show rating
add to favorites
×
Save as Personal and add changes to this tab that will be seen only by you. Learn more ›
×
You can save this tab as Personal to edit and correct it or add notes. All changes will be seen only by you. Learn more »
launch autoscroll
font size
0
reset
how to read this tab
guitar tuner
edit
Autoscroll
slow
fast
+/-
esc
set tempo
stop
It's the version for an acoustic guitar. Maybe not 100% correct, but it's okay.

Capo 2

Intro:
E-0--2--3------------0--2--3--3---3--------|
B----------1--3--0--------------3----1--3--|
G------------------------------------------|
D----0--0---------------0--0---------------|
A-3--------0---------3---------------0-----|
E----------------3-------------------------|

Verse:

E-----------------------------------|
B-----------------------------------|
G-----0-------0-------0-------0-----| (x2)
D---2---2---4---4---2---2---2---2---|
A-3-------5-------2-------2-------0-|
E-----------------------------------|

E-----------------0--2--3-|
B-------------------------|
G-----0-------0-----------|
D---2---2---4---4----0--0-|
A-3-------5-------3-------|
E-------------------------|

E-----------------------------------|
B-----------------------------------|
G-----0-------0-------0-------0-----|
D---2---2---4---4---2---2---2---2---|
A-3-------5-------2-------2-------0-|
E-----------------------------------|

Cadd9 (x32030)
G (320033)
Dsus2 (xx0230)
Em (022000)
A7sus4 (x54030)
Dsus4 (xx0233)

Me o tojite, iron na kimi, hitomi no oku ni osamemashita.
Binetsu mitaku ki zukanai mama de, koi ha mushi no iki desu.

Kokoro tojite, iron na boku, mune no naka ni tokashimashita.
Kinjirareta asobi de moyaseba kodokutte kirei na iro.


Pre-chorus:

  Cadd9        G     Dsus2       G         Em        A7sus4
Maware, yamemaranai record. Hari no saki odori ha kioku.
  Cadd9              G                 Em            Cadd9    D Dsus4
Ureshii kurushii, niteru jumon da. Tadorenai jikan e, ato nan senchi?

Chorus:

  Cadd9   A7sus4   Em
Karameta yubi o hodoite iku,
  Cadd9      A7sus4      Em
chiisaku sayonara tonaeru you ni.
  Cadd9    A7sus4       Em
Hagureta kimi no na o tsugete mo,
    Cadd9    Asus4    Em
modoranai sekai no kimari.

Kaze dachinu, amai kuzu ga kazoe kirezu chirakari sou.
Kakiazumete puzzle o tsureba, koi mo suteki na koto.

Takusan no hikari no naka de, ikutsu mo aeteitakke.
Aikotoba dake nakusanai de. Meguri au tokoro e, ato nan kounen?

Memai de, yume no hanahirakeba,
yukkuri sayonara tonaeru you de.
Zawameki. Mune o kakomaretara,
doko ni mo ikenai mama de.

Hanataba no hana ga hitotsu zutsu,
kareteku no o nagameteiru you na.
Sawarenai koto ni tada kizuite,
machi kogareta namida ga deta.

Kamisama ni uso o tsuite, hikikae ni sa, nani moratta no?
Yubi no sukima suberi ochita no ha, itsu no hi no koto de shou.

Karameta yubi o hodoite iku,
chiisaku sayonara tonaeta, koe.
Hagureta kimi no na o yonde mo,
kaerenai sekai no kimari.

Me samete, yume no hana chirabare.
Ureshimi mo shizuka ni, sanatorium ————.
Zawameki. Mune o umetsukushite,
koko kara ukenai mama de.
Doko ni mo ikenai no ha "kokoro"
Soko ni ita kimi ga warau no.

Sanatorium de, sanatorium de. Sanatorium de.

            
            
Suggest correction
Creating personal tab
Creating personal tab
You can edit any tab online and save it as your Personal.

You can edit, replace or remove any tab part or add personal notes – all changes will be seen only by you.

Personal tabs can be accessed anytime from any device, even offline.
Learn more »
Give kudos to tab author, rate the tab!
1 2 3 4 5
comments
print report bad tab
guest
You may want to rate the tab now too:
select rating
Wanna post a correction for this tab? Suggest correction