Oops, an error
Loading. Please wait.

Baston tab

156 views 1 this week
no commentswrite comment
1 2 3 4 5
3 more votes to show rating
add to favorites
×
Save as Personal and add changes to this tab that will be seen only by you. Learn more ›
×
You can save this tab as Personal to edit and correct it or add notes. All changes will be seen only by you. Learn more »
launch autoscroll
font size
0
reset
how to read this tab
guitar tuner
edit
Autoscroll
slow
fast
+/-
esc
set tempo
stop
AHORA TRAIGO ESTA CANCION CON TODO Y SU SOLO
DE SAX, ESPERO QUE LES GUSTE SOLO AGARRENLE EL
RITMO.Y VA MAS O MENOS ASI

A
Kuánto tengo ke pasar

kuaáto sufriré de más
      D
Toma mi alma y piensa
      A
Que amor sólo kiero enkontrar
A
Kuánto tengo ke esperar

Para aprender a vola
D
Y rekorrer el mundo
      A
Y así los dos alucinar
D                           A
Sólo kiero verte sonreír
D                           A
Sólo kiero verte y ser feliz

*Solo sax
ACORDES :A - F#m-A-C#m - F#m - E
1-----------------------------------I
2-------7-9-3-5-5-9-5-7-5-3-5-------I
3-6-7-9-----------------------------I
4-----------------------------------I
5-----------------------------------I
6-----------------------------------I

1-----------------------------------I
2---7-5-3--7-5-3--7-5-3-3-5-7-------I
3-----------------------------------I
4-----------------------------------I
5-----------------------------------I
6-----------------------------------I

1--5-7-7-7--5-7-9---5-7-7-7--5-7-9---12---18---19--18-I
2-----------------------------------------------------I
3-----------------------------------------------------I
4-----------------------------------------------------I
5-----------------------------------------------------I
6-----------------------------------------------------I


A
Kuánto tengo que esperar

Para aprender a volar
           D
Y recorrer el mundo
                               A
Y así los dos alucinar
D                           A
Sólo kiero verte sonreír
D                            A
Sólo kiero verte y ser feliz.
A      G#   G    F#m      E - F#m - Gm G#  - A  X2
Shuru.  Shuru.     Shuru    la    la      la     la     la  ser feliz yo soy
Q

            
            
Suggest correction
Creating personal tab
Creating personal tab
You can edit any tab online and save it as your Personal.

You can edit, replace or remove any tab part or add personal notes – all changes will be seen only by you.

Personal tabs can be accessed anytime from any device, even offline.
Learn more »
Give kudos to tab author, rate the tab!
1 2 3 4 5
comments
print report bad tab
guest
Wanna post a correction for this tab? Suggest correction