Oops, an error
Loading. Please wait.

Respira tab

107 views 1 this week
no commentswrite comment
1 2 3 4 5
3 more votes to show rating
add to favorites
×
Save as Personal and add changes to this tab that will be seen only by you. Learn more ›
×
You can save this tab as Personal to edit and correct it or add notes. All changes will be seen only by you. Learn more »
launch autoscroll
font size
0
reset
how to read this tab
guitar tuner
edit
Autoscroll
slow
fast
+/-
esc
set tempo
stop
intro:
E-------------------------------------------------
B---------------0-2--0----------------------------
G--1---2-4--2------------1-1-1-0--0/1-4--1-0------
D--------------------------------------------2----
A-------------------------------------------------
E-------------------------------------------------

 E                   F#                   A      Am
Respira, no guardes saliva, las penas son largas, me lastimas
E                    F#                   A      Am
respira, no guardes saliva, hay penas muy malas, no digas mentiras
E               F#                            A                   E
el tiempo ya no existe en mi, es momento de vivir, esperare lejos de ti
            F#                  A              E
de no poder vivir, de no saber amar, podemos empezar
         F#    A                E               F#      A            E
no temas màs, respira dentro de mì, solo di la verdad, la vida te lo dirà

E---------------------------------------4-----------
B---------------0-2--0------------------------------
G--1---2-4--2------------1-1-1---1-2-4--------------
D------------------------------2--------------------
A---------------------------------------------------
E---------------------------------------------------

E                 F#                 A       Am              E
respira, respira conmigo,es largo el camino, no acabes con la vida
          F#      A                 E
y es que juraste que no me ivas a soltar.
y es que juraste que a mi lado ivas a estar
         F#    A               E               F#      A            E
no temas màs, repira dentro de mì, solo di la verdad, la vida te lo dirà
             F#                     A              E
un dia encontramos, juntos los dos, la formula de amar
         F#   A                  E
y nos juramos que esto no iba a terminar

outro:
E-------------------------------------------------
B---------------0-2--0----------------------------
G--1---2-4--2------------1-1-1-0--0/1-4--1-0------    X2
D--------------------------------------------2----
A-------------------------------------------------
E-------------------------------------------------

            
            
Suggest correction
Creating personal tab
Creating personal tab
You can edit any tab online and save it as your Personal.

You can edit, replace or remove any tab part or add personal notes – all changes will be seen only by you.

Personal tabs can be accessed anytime from any device, even offline.
Learn more »
Give kudos to tab author, rate the tab!
1 2 3 4 5
comments
print report bad tab
guest
Wanna post a correction for this tab? Suggest correction