Oops, an error
Loading. Please wait.

Pervert Pop Song tab

version 2
version 2

Whole song

31,679 views 6 this week
no commentswrite comment
1 2 3 4 5
1 last vote to show rating
add to favorites
×
Save as Personal and add changes to this tab that will be seen only by you. Learn more ›
×
You can save this tab as Personal to edit and correct it or add notes. All changes will be seen only by you. Learn more »
launch autoscroll
font size
0
reset
how to read this tab
guitar tuner
edit
Autoscroll
slow
fast
+/-
esc
set tempo
stop
Author
-----------------------------------------------------------------
                            Pervert Pop song-Plastilina Mosh
-----------------------------------------------------------------
Tabbed by:Caranokol


Tuning:Standard


             listen the rythm

Intro / verse

e|---7-7--x-x--7-7-7--------9--9----9---9----9------------|
B|---8-8--x-x--8-8-8--------10-10---10--10---10-----------|
G|---7-7--x-x--7-7-7--------11-11---9---9----9------------|
D|---9-9--x-x--9-9-9--------11-11---11--11---11-----------|
A|---7-7--x-x--7-7-7--------9--9----9---9----9------------|
E|--------------------------------------------------------|


Bass  (intro/coro )
G|-----------------------------------|
D|-----------------------------------|
A|------5------5------5------5-------|
E|----3-----3------3------3----------|

Bass (verse)
G|-----------------------------------|
D|-----------------------------------|
A|-----------------------------------|
E|----3-3---3h2/5-5-5---5-0-0--------|


Castígame
Sé que me he portado mal          
Diviértete
Sé que gozas y me gusta
[x2]

Castígame
Me he portado mal
Diviértete
Gozas y me gusta
[x2]

Te quiero igual y
No sé ni como aguantar
Ni controlar mis deseos de morderte
En donde no te puedes mirar
Mientras busco distracción en el radio
o en tu conversación
o en una estúpida canción

Castígame
Sé que me he portado mal
Diviértete
Sé que gozas y me gusta
[x2]

Castígame
Me he portado mal
Diviértete
Gozas y me gusta
[Más Letras en es.mp3lyrics.org/L8uM]
[x2]

y me detengo con tus ojos cristalinos
Como gotas de champán
y sin embargo no dejó de pensar
en lo suave de tus labios cuando sueles besar
y el sabor de tu saliva cuando empiezas a amar
y entiende lo que digo esto es fácil
solo sigue el manual
no tiene tanto problema
es cuestión de escuchar
no busques una tanjente
es fácil como decir
que yo te gusto como tú a mí

Castígame
Sé que me he portado mal
Diviértete
Sé que gozas y me gusta
[x2]

Castígame
Me he portado mal
Diviértete
Gozas y me gusta
[x2]

Castígame
Sé que me he portado mal
Diviértete
Sé que gozas y me gusta
[x2]

Castígame
Me he portado mal
Diviértete
Gozas y me gusta
[x2]

            
            
Suggest correction
Creating personal tab
Creating personal tab
You can edit any tab online and save it as your Personal.

You can edit, replace or remove any tab part or add personal notes – all changes will be seen only by you.

Personal tabs can be accessed anytime from any device, even offline.
Learn more »
Give kudos to tab author, rate the tab!
1 2 3 4 5
comments
print report bad tab
guest
You may want to rate the tab now too:
select rating
Wanna post a correction for this tab? Suggest correction