Oops, an error
Loading. Please wait.

Baby Come Back tab

version 2
version 2

Whole song

Interactive

by Player
4,680 views 33 this week
1 commentread comment
1 2 3 4 5
2 more votes to show rating
add to favorites
×
Save as Personal and add changes to this tab that will be seen only by you. Learn more ›
×
You can save this tab as Personal to edit and correct it or add notes. All changes will be seen only by you. Learn more »
launch autoscroll
font size
0
reset
how to read this tab
guitar tuner
backing track
0:00
0:00
edit
Autoscroll
slow
fast
+/-
esc
set tempo
stop
Author
--------------------------------------------------------------------------
                      Player - Baby come back
--------------------------------------------------------------------------
Tabbed by:Gary Elechicon
Email:rephlica@yahoo.com

Tuning:standard


 Not sure about those chords. But Solos are good enough! hehe

intro:


    G                      F#m       G              F#m      Bm

e|------------------------------------------------------------------------|
B|-------------------5----------------------------5-----------------------|
G|--4~~~-----4--6-7-----6------------4~~---4--6-7-------4h6--4~~~---------|
D|-------------------------4~~~---------------------7~~-------------------|
A|------------------------------------------------------------------------|
E|------------------------------------------------------------------------|

   G                   F#m     G              F#m         Bm

e|------------------------------------------------------------------------|
B|---------------7-8-----------------------7-8----------------------------|
G|--7~~~---7--9------6---------7~~~--7--9------6~~----7/9--7~~~-----------|
D|----------------------7~~~----------------------------------------------|
A|------------------------------------------------------------------------|
E|------------------------------------------------------------------------|

Verse: A  F#m  Bm


1st Chorus:

  (1:00) A   Bm        G                       F#m    Bm
e|-----------------|--------------------------------------|
B|-----------------|---------12~~----12\10~~--------------|
G|-----------------|----9/11------11----------------------|
D|-----------------|--------------------------------------|
A|-----------------|--------------------------------------|
E|-----------------|--------------------------------------|

  Em    F#m  (1:12)                    G   F#m     Bm
e|--------------------------------------------------------------|
B|--------------------------------------------------------------|
G|-------------------------------2/4--4~~~---------4~~~~--------|
D|------------------------2--4/5--------------------------------|
A|---------------2--4--5----------------------------------------|
E|-------(3)-(5)------------------------------------------------|
  

2nd Chorus:

    G  (1:59)                    F#m    Bm 
e|----------------------------------------|
B|-----------12~~----12\10~~--------------|
G|------9/11------11----------------------|
D|----------------------------------------|
A|----------------------------------------|
E|----------------------------------------|

 Em  F#m  (2:08)                      G     F#m           Bm
e|--------------------------------------------------------------|
B|--------------------------------------------------------------|
G|------------------------------2/4--4~~~----4-5--4~~~----5~~~~-|
D|-----------------------2--4/5---------------------------------|
A|--------------2--4--5-----------------------------------------|
E|------(3)-(5)-------------------------------------------------|

Bridge:

Solo:
e|------------------------------------------|
B|------------------------------------------|
G|------------------------------2/4--4~~~---|
D|-----------------------2--4/5-------------|
A|--------------2--4--5---------------------|
E|--------3--5------------------------------|
                                      
                                          pick and slow bend
e|-------------------------------------------------------------------------|
B|----------------------5----------------------10-10--------10--10---------|
G|-----7b(9)--6------4-----4-4~~~------9b(11)--------9b(11)---------9b(11)-|
D|----------------7--------------------------------------------------------|
A|-------------------------------------------------------------------------|
E|-------------------------------------------------------------------------|

e|------------------------------------------------------------|
B|---10--10--------------------------------------------10-----|
G|-------------9--7--9---------------------9~~---9/11---------|
D|----------------------9--9~~~--11~~-12~~--------------------|
A|------------------------------------------------------------|
E|------------------------------------------------------------|

e|-------------------------------------------------------------------------|
B|----10----12-----10------12------10--------17b(19)--15-14-15-14----------|
G|/11----11----11------11------11------11--------------------------14b(16)~|
D|-------------------------------------------------------------------------|
A|-------------------------------------------------------------------------|
E|-------------------------------------------------------------------------|



Solo not finished and bridge part.
a little bit faster on the last part. i'll post it next time.
comments and suggestions much welcome.


| /  slide up
| \  slide down
| h  hammer-on
| p  pull-off
| ~  vibrato
| +  harmonic
| x  Mute note
===============================================================================

            
            
Suggest correction
Creating personal tab
Creating personal tab
You can edit any tab online and save it as your Personal.

You can edit, replace or remove any tab part or add personal notes – all changes will be seen only by you.

Personal tabs can be accessed anytime from any device, even offline.
Learn more »
Give kudos to tab author, rate the tab!
1 2 3 4 5
comments
print report bad tab
1 comment total.
0 reply
matt6v34 10 Jan 12, 2009 04:20 PM

Just add a Capo on 1 and those chords work.

guest
You may want to rate the tab now too:
select rating
Wanna post a correction for this tab? Suggest correction